  0
SECTION
  2
HEADER
  9
$ACADVER
  1
AC1014
  9
$INSBASE
 10
0.000000
 20
0.000000
  9
$LIMMIN
 10
-38.700000
 20
-58.700000
  9
$LIMMAX
 10
121.300000
 20
111.300000
  9
$EXTMIN
 10
-38.700000
 20
-58.700000
  9
$EXTMAX
 10
121.300000
 20
111.300000
  9
$ATTMODE
 70
0
  9
$LUNITS
 70
2
  9
$LUPREC
 70
3
  9
$THICKNESS
 40
1.550000
  9
$MEASUREMENT
 70
1
  9
$HANDSEED
  5
953
  0
ENDSEC
  0
SECTION
  2
TABLES
  0
TABLE
  2
LTYPE
  5
4
100
AcDbSymbolTable
 70
3
  0
LTYPE
  5
1
100
AcDbSymbolTableRecord
100
AcDbLinetypeTableRecord
  3

  2
BYBLOCK
 70
0
 72
65
 73
0
 40
0.000000
  0
LTYPE
  5
2
100
AcDbSymbolTableRecord
100
AcDbLinetypeTableRecord
  3

  2
BYLAYER
 70
0
 72
65
 73
0
 40
0.000000
  0
LTYPE
  5
3
100
AcDbSymbolTableRecord
100
AcDbLinetypeTableRecord
  3
Solid Line
  2
CONTINUOUS
 70
0
 72
65
 73
0
 40
0.000000
  0
ENDTAB
  0
TABLE
  2
LAYER
  5
d
100
AcDbSymbolTable
 70
8
  0
LAYER
  5
5
100
AcDbSymbolTableRecord
100
AcDbLayerTableRecord
  2
0
 70
0
 62
1
  6
CONTINUOUS
  0
LAYER
  5
6
100
AcDbSymbolTableRecord
100
AcDbLayerTableRecord
  2
DIMENSION
 70
0
 62
2
  6
CONTINUOUS
  0
LAYER
  5
7
100
AcDbSymbolTableRecord
100
AcDbLayerTableRecord
  2
OUTLINE
 70
0
 62
3
  6
CONTINUOUS
  0
LAYER
  5
8
100
AcDbSymbolTableRecord
100
AcDbLayerTableRecord
  2
ETCH
 70
0
 62
4
  6
CONTINUOUS
  0
LAYER
  5
9
100
AcDbSymbolTableRecord
100
AcDbLayerTableRecord
  2
PINNUMBERS
 70
0
 62
5
  6
CONTINUOUS
  0
LAYER
  5
a
100
AcDbSymbolTableRecord
100
AcDbLayerTableRecord
  2
ASSEMBLY
 70
0
 62
6
  6
CONTINUOUS
  0
LAYER
  5
b
100
AcDbSymbolTableRecord
100
AcDbLayerTableRecord
  2
ETCH
 70
0
 62
7
  6
CONTINUOUS
  0
LAYER
  5
c
100
AcDbSymbolTableRecord
100
AcDbLayerTableRecord
  2
ASSEMBLY
 70
0
 62
8
  6
CONTINUOUS
  0
ENDTAB
  0
TABLE
  2
STYLE
  5
f
100
AcDbSymbolTable
 70
1
  0
STYLE
  5
e
100
AcDbSymbolTableRecord
100
AcDbTextStyleTableRecord
  2
STANDARD
 70
0
 40
0.000000
 41
1.000000
 50
0.000000
 71
0
 42
0.200000
  3
txt
  0
ENDTAB
  0
TABLE
  2
VPORT
  5
10
100
AcDbSymbolTable
 70
1
  0
ENDTAB
  0
TABLE
  2
VIEW
  5
11
100
AcDbSymbolTable
 70
1
  0
ENDTAB
  0
TABLE
  2
APPID
  5
13
100
AcDbSymbolTable
 70
1
  0
APPID
  5
12
100
AcDbSymbolTableRecord
100
AcDbRegAppTableRecord
  2
ACAD
 70
0
  0
ENDTAB
  0
TABLE
  2
UCS
  5
14
100
AcDbSymbolTable
 70
1
  0
ENDTAB
  0
TABLE
  2
BLOCK_RECORD
  5
15
100
AcDbSymbolTable
 70
10
  0
BLOCK_RECORD
  5
71
100
AcDbSymbolTableRecord
100
AcDbBlockTableRecord
  2
FIGURE_DIAMOND
  0
BLOCK_RECORD
  5
68
100
AcDbSymbolTableRecord
100
AcDbBlockTableRecord
  2
FIGURE_CROSS
  0
BLOCK_RECORD
  5
5d
100
AcDbSymbolTableRecord
100
AcDbBlockTableRecord
  2
FIGURE_TRI
  0
BLOCK_RECORD
  5
55
100
AcDbSymbolTableRecord
100
AcDbBlockTableRecord
  2
FIGURE_OBLONG
  0
BLOCK_RECORD
  5
44
100
AcDbSymbolTableRecord
100
AcDbBlockTableRecord
  2
FIGURE_OCT
  0
BLOCK_RECORD
  5
37
100
AcDbSymbolTableRecord
100
AcDbBlockTableRecord
  2
FIGURE_HEX
  0
BLOCK_RECORD
  5
2c
100
AcDbSymbolTableRecord
100
AcDbBlockTableRecord
  2
FIGURE_SQUARE
  0
BLOCK_RECORD
  5
23
100
AcDbSymbolTableRecord
100
AcDbBlockTableRecord
  2
FIGURE_CIRCLE
  0
BLOCK_RECORD
  5
1f
100
AcDbSymbolTableRecord
100
AcDbBlockTableRecord
  2
*PAPER_SPACE
  0
BLOCK_RECORD
  5
1c
100
AcDbSymbolTableRecord
100
AcDbBlockTableRecord
  2
*MODEL_SPACE
  0
ENDTAB
  0
TABLE
  2
DIMSTYLE
  5
16
100
AcDbSymbolTable
 70
1
  0
ENDTAB
  0
ENDSEC
  0
SECTION
  2
BLOCKS
  0
BLOCK
  5
1a
100
AcDbEntity
  8
0
100
AcDbBlockBegin
  2
*MODEL_SPACE
 70
0
 10
0.000000
 20
0.000000
  3
*MODEL_SPACE
  0
ENDBLK
  5
1b
100
AcDbEntity
  8
0
100
AcDbBlockEnd
  0
BLOCK
  5
1d
100
AcDbEntity
  8
0
100
AcDbBlockBegin
  2
*PAPER_SPACE
 70
0
 10
0.000000
 20
0.000000
  3
*PAPER_SPACE
  0
ENDBLK
  5
1e
100
AcDbEntity
  8
0
100
AcDbBlockEnd
  0
BLOCK
  5
20
100
AcDbEntity
  8
0
100
AcDbBlockBegin
  2
FIGURE_CIRCLE
 70
0
 10
0.000000
 20
0.000000
  3
FIGURE_CIRCLE
  0
CIRCLE
  5
22
100
AcDbEntity
  8
0
100
AcDbCircle
 10
0.000000
 20
0.000000
 40
0.500000
  0
ENDBLK
  5
21
100
AcDbEntity
  8
0
100
AcDbBlockEnd
  0
BLOCK
  5
24
100
AcDbEntity
  8
0
100
AcDbBlockBegin
  2
FIGURE_SQUARE
 70
0
 10
0.000000
 20
0.000000
  3
FIGURE_SQUARE
  0
POLYLINE
  5
26
100
AcDbEntity
  8
0
100
AcDb2dPolyline
 66
1
 70
1
 40
0.000000
 41
0.000000
 39
0.000000
  0
VERTEX
  5
28
100
AcDbEntity
  8
0
100
AcDbVertex
100
AcDb2dVertex
 10
-0.500000
 20
-0.500000
 40
0.000000
 41
0.000000
 42
0.000000
  0
VERTEX
  5
29
100
AcDbEntity
  8
0
100
AcDbVertex
100
AcDb2dVertex
 10
-0.500000
 20
0.500000
 40
0.000000
 41
0.000000
 42
0.000000
  0
VERTEX
  5
2a
100
AcDbEntity
  8
0
100
AcDbVertex
100
AcDb2dVertex
 10
0.500000
 20
0.500000
 40
0.000000
 41
0.000000
 42
0.000000
  0
VERTEX
  5
2b
100
AcDbEntity
  8
0
100
AcDbVertex
100
AcDb2dVertex
 10
0.500000
 20
-0.500000
 40
0.000000
 41
0.000000
 42
0.000000
  0
SEQEND
  5
27
100
AcDbEntity
  0
ENDBLK
  5
25
100
AcDbEntity
  8
0
100
AcDbBlockEnd
  0
BLOCK
  5
2d
100
AcDbEntity
  8
0
100
AcDbBlockBegin
  2
FIGURE_HEX
 70
0
 10
0.000000
 20
0.000000
  3
FIGURE_HEX
  0
POLYLINE
  5
2f
100
AcDbEntity
  8
0
100
AcDb2dPolyline
 66
1
 70
1
 40
0.000000
 41
0.000000
 39
0.000000
  0
VERTEX
  5
31
100
AcDbEntity
  8
0
100
AcDbVertex
100
AcDb2dVertex
 10
-0.500000
 20
0.000000
 40
0.000000
 41
0.000000
 42
0.000000
  0
VERTEX
  5
32
100
AcDbEntity
  8
0
100
AcDbVertex
100
AcDb2dVertex
 10
-0.250000
 20
0.500000
 40
0.000000
 41
0.000000
 42
0.000000
  0
VERTEX
  5
33
100
AcDbEntity
  8
0
100
AcDbVertex
100
AcDb2dVertex
 10
0.250000
 20
0.500000
 40
0.000000
 41
0.000000
 42
0.000000
  0
VERTEX
  5
34
100
AcDbEntity
  8
0
100
AcDbVertex
100
AcDb2dVertex
 10
0.500000
 20
0.000000
 40
0.000000
 41
0.000000
 42
0.000000
  0
VERTEX
  5
35
100
AcDbEntity
  8
0
100
AcDbVertex
100
AcDb2dVertex
 10
0.250000
 20
-0.500000
 40
0.000000
 41
0.000000
 42
0.000000
  0
VERTEX
  5
36
100
AcDbEntity
  8
0
100
AcDbVertex
100
AcDb2dVertex
 10
-0.250000
 20
-0.500000
 40
0.000000
 41
0.000000
 42
0.000000
  0
SEQEND
  5
30
100
AcDbEntity
  0
ENDBLK
  5
2e
100
AcDbEntity
  8
0
100
AcDbBlockEnd
  0
BLOCK
  5
38
100
AcDbEntity
  8
0
100
AcDbBlockBegin
  2
FIGURE_OCT
 70
0
 10
0.000000
 20
0.000000
  3
FIGURE_OCT
  0
POLYLINE
  5
3a
100
AcDbEntity
  8
0
100
AcDb2dPolyline
 66
1
 70
1
 40
0.000000
 41
0.000000
 39
0.000000
  0
VERTEX
  5
3c
100
AcDbEntity
  8
0
100
AcDbVertex
100
AcDb2dVertex
 10
-0.500000
 20
-0.207100
 40
0.000000
 41
0.000000
 42
0.000000
  0
VERTEX
  5
3d
100
AcDbEntity
  8
0
100
AcDbVertex
100
AcDb2dVertex
 10
-0.500000
 20
0.207100
 40
0.000000
 41
0.000000
 42
0.000000
  0
VERTEX
  5
3e
100
AcDbEntity
  8
0
100
AcDbVertex
100
AcDb2dVertex
 10
-0.207100
 20
0.500000
 40
0.000000
 41
0.000000
 42
0.000000
  0
VERTEX
  5
3f
100
AcDbEntity
  8
0
100
AcDbVertex
100
AcDb2dVertex
 10
0.207100
 20
0.500000
 40
0.000000
 41
0.000000
 42
0.000000
  0
VERTEX
  5
40
100
AcDbEntity
  8
0
100
AcDbVertex
100
AcDb2dVertex
 10
0.500000
 20
0.207100
 40
0.000000
 41
0.000000
 42
0.000000
  0
VERTEX
  5
41
100
AcDbEntity
  8
0
100
AcDbVertex
100
AcDb2dVertex
 10
0.500000
 20
-0.207100
 40
0.000000
 41
0.000000
 42
0.000000
  0
VERTEX
  5
42
100
AcDbEntity
  8
0
100
AcDbVertex
100
AcDb2dVertex
 10
0.207100
 20
-0.500000
 40
0.000000
 41
0.000000
 42
0.000000
  0
VERTEX
  5
43
100
AcDbEntity
  8
0
100
AcDbVertex
100
AcDb2dVertex
 10
-0.207100
 20
-0.500000
 40
0.000000
 41
0.000000
 42
0.000000
  0
SEQEND
  5
3b
100
AcDbEntity
  0
ENDBLK
  5
39
100
AcDbEntity
  8
0
100
AcDbBlockEnd
  0
BLOCK
  5
45
100
AcDbEntity
  8
0
100
AcDbBlockBegin
  2
FIGURE_OBLONG
 70
0
 10
0.000000
 20
0.000000
  3
FIGURE_OBLONG
  0
POLYLINE
  5
47
100
AcDbEntity
  8
0
100
AcDb2dPolyline
 66
1
 70
1
 40
0.000000
 41
0.000000
 39
0.000000
  0
VERTEX
  5
49
100
AcDbEntity
  8
0
100
AcDbVertex
100
AcDb2dVertex
 10
-0.500000
 20
-0.125000
 40
0.000000
 41
0.000000
 42
0.000000
  0
VERTEX
  5
4a
100
AcDbEntity
  8
0
100
AcDbVertex
100
AcDb2dVertex
 10
-0.500000
 20
0.125000
 40
0.000000
 41
0.000000
 42
0.000000
  0
VERTEX
  5
4b
100
AcDbEntity
  8
0
100
AcDbVertex
100
AcDb2dVertex
 10
-0.416000
 20
0.375000
 40
0.000000
 41
0.000000
 42
0.000000
  0
VERTEX
  5
4c
100
AcDbEntity
  8
0
100
AcDbVertex
100
AcDb2dVertex
 10
-0.250000
 20
0.500000
 40
0.000000
 41
0.000000
 42
0.000000
  0
VERTEX
  5
4d
100
AcDbEntity
  8
0
100
AcDbVertex
100
AcDb2dVertex
 10
0.250000
 20
0.500000
 40
0.000000
 41
0.000000
 42
0.000000
  0
VERTEX
  5
4e
100
AcDbEntity
  8
0
100
AcDbVertex
100
AcDb2dVertex
 10
0.416000
 20
0.375000
 40
0.000000
 41
0.000000
 42
0.000000
  0
VERTEX
  5
4f
100
AcDbEntity
  8
0
100
AcDbVertex
100
AcDb2dVertex
 10
0.500000
 20
0.125000
 40
0.000000
 41
0.000000
 42
0.000000
  0
VERTEX
  5
50
100
AcDbEntity
  8
0
100
AcDbVertex
100
AcDb2dVertex
 10
0.500000
 20
-0.125000
 40
0.000000
 41
0.000000
 42
0.000000
  0
VERTEX
  5
51
100
AcDbEntity
  8
0
100
AcDbVertex
100
AcDb2dVertex
 10
0.416000
 20
-0.375000
 40
0.000000
 41
0.000000
 42
0.000000
  0
VERTEX
  5
52
100
AcDbEntity
  8
0
100
AcDbVertex
100
AcDb2dVertex
 10
0.250000
 20
-0.500000
 40
0.000000
 41
0.000000
 42
0.000000
  0
VERTEX
  5
53
100
AcDbEntity
  8
0
100
AcDbVertex
100
AcDb2dVertex
 10
-0.250000
 20
-0.500000
 40
0.000000
 41
0.000000
 42
0.000000
  0
VERTEX
  5
54
100
AcDbEntity
  8
0
100
AcDbVertex
100
AcDb2dVertex
 10
-0.416000
 20
-0.375000
 40
0.000000
 41
0.000000
 42
0.000000
  0
SEQEND
  5
48
100
AcDbEntity
  0
ENDBLK
  5
46
100
AcDbEntity
  8
0
100
AcDbBlockEnd
  0
BLOCK
  5
56
100
AcDbEntity
  8
0
100
AcDbBlockBegin
  2
FIGURE_TRI
 70
0
 10
0.000000
 20
0.000000
  3
FIGURE_TRI
  0
POLYLINE
  5
58
100
AcDbEntity
  8
0
100
AcDb2dPolyline
 66
1
 70
1
 40
0.000000
 41
0.000000
 39
0.000000
  0
VERTEX
  5
5a
100
AcDbEntity
  8
0
100
AcDbVertex
100
AcDb2dVertex
 10
-0.500000
 20
-0.500000
 40
0.000000
 41
0.000000
 42
0.000000
  0
VERTEX
  5
5b
100
AcDbEntity
  8
0
100
AcDbVertex
100
AcDb2dVertex
 10
0.000000
 20
0.500000
 40
0.000000
 41
0.000000
 42
0.000000
  0
VERTEX
  5
5c
100
AcDbEntity
  8
0
100
AcDbVertex
100
AcDb2dVertex
 10
0.500000
 20
-0.500000
 40
0.000000
 41
0.000000
 42
0.000000
  0
SEQEND
  5
59
100
AcDbEntity
  0
ENDBLK
  5
57
100
AcDbEntity
  8
0
100
AcDbBlockEnd
  0
BLOCK
  5
5e
100
AcDbEntity
  8
0
100
AcDbBlockBegin
  2
FIGURE_CROSS
 70
0
 10
0.000000
 20
0.000000
  3
FIGURE_CROSS
  0
POLYLINE
  5
60
100
AcDbEntity
  8
0
100
AcDb2dPolyline
 66
1
 70
0
 40
0.000000
 41
0.000000
 39
0.000000
  0
VERTEX
  5
64
100
AcDbEntity
  8
0
100
AcDbVertex
100
AcDb2dVertex
 10
-0.500000
 20
0.000000
 40
0.000000
 41
0.000000
 42
0.000000
  0
VERTEX
  5
65
100
AcDbEntity
  8
0
100
AcDbVertex
100
AcDb2dVertex
 10
0.500000
 20
0.000000
 40
0.000000
 41
0.000000
 42
0.000000
  0
SEQEND
  5
61
100
AcDbEntity
  0
POLYLINE
  5
62
100
AcDbEntity
  8
0
100
AcDb2dPolyline
 66
1
 70
0
 40
0.000000
 41
0.000000
 39
0.000000
  0
VERTEX
  5
66
100
AcDbEntity
  8
0
100
AcDbVertex
100
AcDb2dVertex
 10
0.000000
 20
0.500000
 40
0.000000
 41
0.000000
 42
0.000000
  0
VERTEX
  5
67
100
AcDbEntity
  8
0
100
AcDbVertex
100
AcDb2dVertex
 10
0.000000
 20
-0.500000
 40
0.000000
 41
0.000000
 42
0.000000
  0
SEQEND
  5
63
100
AcDbEntity
  0
ENDBLK
  5
5f
100
AcDbEntity
  8
0
100
AcDbBlockEnd
  0
BLOCK
  5
69
100
AcDbEntity
  8
0
100
AcDbBlockBegin
  2
FIGURE_DIAMOND
 70
0
 10
0.000000
 20
0.000000
  3
FIGURE_DIAMOND
  0
POLYLINE
  5
6b
100
AcDbEntity
  8
0
100
AcDb2dPolyline
 66
1
 70
1
 40
0.000000
 41
0.000000
 39
0.000000
  0
VERTEX
  5
6d
100
AcDbEntity
  8
0
100
AcDbVertex
100
AcDb2dVertex
 10
-0.500000
 20
0.000000
 40
0.000000
 41
0.000000
 42
0.000000
  0
VERTEX
  5
6e
100
AcDbEntity
  8
0
100
AcDbVertex
100
AcDb2dVertex
 10
0.000000
 20
0.500000
 40
0.000000
 41
0.000000
 42
0.000000
  0
VERTEX
  5
6f
100
AcDbEntity
  8
0
100
AcDbVertex
100
AcDb2dVertex
 10
0.500000
 20
0.000000
 40
0.000000
 41
0.000000
 42
0.000000
  0
VERTEX
  5
70
100
AcDbEntity
  8
0
100
AcDbVertex
100
AcDb2dVertex
 10
0.000000
 20
-0.500000
 40
0.000000
 41
0.000000
 42
0.000000
  0
SEQEND
  5
6c
100
AcDbEntity
  0
ENDBLK
  5
6a
100
AcDbEntity
  8
0
100
AcDbBlockEnd
  0
ENDSEC
  0
SECTION
  2
ENTITIES
  0
POLYLINE
  5
72
100
AcDbEntity
  8
DIMENSION
100
AcDb2dPolyline
 66
1
 70
0
 40
0.000000
 41
0.000000
 39
0.000000
  0
VERTEX
  5
74
100
AcDbEntity
  8
DIMENSION
100
AcDbVertex
100
AcDb2dVertex
 10
78.022000
 20
49.578000
 40
0.000000
 41
0.000000
 42
0.000000
  0
VERTEX
  5
75
100
AcDbEntity
  8
DIMENSION
100
AcDbVertex
100
AcDb2dVertex
 10
72.000000
 20
55.600000
 40
0.000000
 41
0.000000
 42
0.000000
  0
VERTEX
  5
76
100
AcDbEntity
  8
DIMENSION
100
AcDbVertex
100
AcDb2dVertex
 10
70.763000
 20
55.600000
 40
0.000000
 41
0.000000
 42
0.000000
  0
SEQEND
  5
73
100
AcDbEntity
  0
POLYLINE
  5
77
100
AcDbEntity
  8
DIMENSION
100
AcDb2dPolyline
 66
1
 70
0
 40
0.000000
 41
0.000000
 39
0.000000
  0
VERTEX
  5
79
100
AcDbEntity
  8
DIMENSION
100
AcDbVertex
100
AcDb2dVertex
 10
63.569000
 20
57.027000
 40
0.000000
 41
0.000000
 42
0.000000
  0
VERTEX
  5
7a
100
AcDbEntity
  8
DIMENSION
100
AcDbVertex
100
AcDb2dVertex
 10
61.665000
 20
54.171000
 40
0.000000
 41
0.000000
 42
0.000000
  0
SEQEND
  5
78
100
AcDbEntity
  0
POLYLINE
  5
7b
100
AcDbEntity
  8
DIMENSION
100
AcDb2dPolyline
 66
1
 70
1
 40
0.000000
 41
0.000000
 39
0.000000
  0
VERTEX
  5
7d
100
AcDbEntity
  8
DIMENSION
100
AcDbVertex
100
AcDb2dVertex
 10
63.569000
 20
55.599000
 40
0.000000
 41
0.000000
 42
1.000000
  0
VERTEX
  5
7e
100
AcDbEntity
  8
DIMENSION
100
AcDbVertex
100
AcDb2dVertex
 10
61.665000
 20
55.599000
 40
0.000000
 41
0.000000
 42
1.000000
  0
SEQEND
  5
7c
100
AcDbEntity
  0
HATCH
  5
83
100
AcDbEntity
  8
DIMENSION
100
AcDbHatch
 10
0.000000
 20
0.000000
 30
0.000000
210
0.000000
220
0.000000
230
1.000000
  2
SOLID
 70
1
 71
0
 91
1
 92
2
 72
1
 73
1
 93
3
 10
76.387000
 20
50.772000
 42
0.000000
 10
78.022000
 20
49.578000
 42
0.000000
 10
76.828000
 20
51.213000
 42
0.000000
 97
0
 75
0
 76
1
 98
1
 10
0.000000
 20
0.000000
  0
TEXT
  5
84
100
AcDbEntity
  8
DIMENSION
100
AcDbText
 10
64.053000
 20
54.647000
 11
0.000000
 21
0.000000
 40
1.905000
 41
1.000000
 50
0.000000
  7
STANDARD
 71
0
 72
0
  1
2.2
100
AcDbText
 73
0
  0
POLYLINE
  5
85
100
AcDbEntity
  8
DIMENSION
100
AcDb2dPolyline
 66
1
 70
0
 40
0.000000
 41
0.000000
 39
0.000000
  0
VERTEX
  5
87
100
AcDbEntity
  8
DIMENSION
100
AcDbVertex
100
AcDb2dVertex
 10
25.646000
 20
55.600000
 40
0.000000
 41
0.000000
 42
0.000000
  0
VERTEX
  5
88
100
AcDbEntity
  8
DIMENSION
100
AcDbVertex
100
AcDb2dVertex
 10
41.300000
 20
55.600000
 40
0.000000
 41
0.000000
 42
0.000000
  0
SEQEND
  5
86
100
AcDbEntity
  0
POLYLINE
  5
89
100
AcDbEntity
  8
DIMENSION
100
AcDb2dPolyline
 66
1
 70
0
 40
0.000000
 41
0.000000
 39
0.000000
  0
VERTEX
  5
8b
100
AcDbEntity
  8
DIMENSION
100
AcDbVertex
100
AcDb2dVertex
 10
15.554000
 20
55.600000
 40
0.000000
 41
0.000000
 42
0.000000
  0
VERTEX
  5
8c
100
AcDbEntity
  8
DIMENSION
100
AcDbVertex
100
AcDb2dVertex
 10
0.000000
 20
55.600000
 40
0.000000
 41
0.000000
 42
0.000000
  0
SEQEND
  5
8a
100
AcDbEntity
  0
POLYLINE
  5
8d
100
AcDbEntity
  8
DIMENSION
100
AcDb2dPolyline
 66
1
 70
0
 40
0.000000
 41
0.000000
 39
0.000000
  0
VERTEX
  5
8f
100
AcDbEntity
  8
DIMENSION
100
AcDbVertex
100
AcDb2dVertex
 10
41.300000
 20
8.675000
 40
0.000000
 41
0.000000
 42
0.000000
  0
VERTEX
  5
90
100
AcDbEntity
  8
DIMENSION
100
AcDbVertex
100
AcDb2dVertex
 10
41.300000
 20
57.100000
 40
0.000000
 41
0.000000
 42
0.000000
  0
SEQEND
  5
8e
100
AcDbEntity
  0
POLYLINE
  5
91
100
AcDbEntity
  8
DIMENSION
100
AcDb2dPolyline
 66
1
 70
0
 40
0.000000
 41
0.000000
 39
0.000000
  0
VERTEX
  5
93
100
AcDbEntity
  8
DIMENSION
100
AcDbVertex
100
AcDb2dVertex
 10
0.000000
 20
1.500000
 40
0.000000
 41
0.000000
 42
0.000000
  0
VERTEX
  5
94
100
AcDbEntity
  8
DIMENSION
100
AcDbVertex
100
AcDb2dVertex
 10
0.000000
 20
57.100000
 40
0.000000
 41
0.000000
 42
0.000000
  0
SEQEND
  5
92
100
AcDbEntity
  0
HATCH
  5
99
100
AcDbEntity
  8
DIMENSION
100
AcDbHatch
 10
0.000000
 20
0.000000
 30
0.000000
210
0.000000
220
0.000000
230
1.000000
  2
SOLID
 70
1
 71
0
 91
1
 92
2
 72
1
 73
1
 93
3
 10
2.000000
 20
55.912000
 42
0.000000
 10
0.000000
 20
55.600000
 42
0.000000
 10
2.000000
 20
55.288000
 42
0.000000
 97
0
 75
0
 76
1
 98
1
 10
0.000000
 20
0.000000
  0
HATCH
  5
9e
100
AcDbEntity
  8
DIMENSION
100
AcDbHatch
 10
0.000000
 20
0.000000
 30
0.000000
210
0.000000
220
0.000000
230
1.000000
  2
SOLID
 70
1
 71
0
 91
1
 92
2
 72
1
 73
1
 93
3
 10
39.300000
 20
55.288000
 42
0.000000
 10
41.300000
 20
55.600000
 42
0.000000
 10
39.300000
 20
55.912000
 42
0.000000
 97
0
 75
0
 76
1
 98
1
 10
0.000000
 20
0.000000
  0
TEXT
  5
9f
100
AcDbEntity
  8
DIMENSION
100
AcDbText
 10
17.031000
 20
54.647000
 11
0.000000
 21
0.000000
 40
1.905000
 41
1.000000
 50
0.000000
  7
STANDARD
 71
0
 72
0
  1
41.3
100
AcDbText
 73
0
  0
POLYLINE
  5
a0
100
AcDbEntity
  8
DIMENSION
100
AcDb2dPolyline
 66
1
 70
0
 40
0.000000
 41
0.000000
 39
0.000000
  0
VERTEX
  5
a2
100
AcDbEntity
  8
DIMENSION
100
AcDbVertex
100
AcDb2dVertex
 10
91.600000
 20
31.346000
 40
0.000000
 41
0.000000
 42
0.000000
  0
VERTEX
  5
a3
100
AcDbEntity
  8
DIMENSION
100
AcDbVertex
100
AcDb2dVertex
 10
91.600000
 20
52.600000
 40
0.000000
 41
0.000000
 42
0.000000
  0
SEQEND
  5
a1
100
AcDbEntity
  0
POLYLINE
  5
a4
100
AcDbEntity
  8
DIMENSION
100
AcDb2dPolyline
 66
1
 70
0
 40
0.000000
 41
0.000000
 39
0.000000
  0
VERTEX
  5
a6
100
AcDbEntity
  8
DIMENSION
100
AcDbVertex
100
AcDb2dVertex
 10
91.600000
 20
21.254000
 40
0.000000
 41
0.000000
 42
0.000000
  0
VERTEX
  5
a7
100
AcDbEntity
  8
DIMENSION
100
AcDbVertex
100
AcDb2dVertex
 10
91.600000
 20
0.000000
 40
0.000000
 41
0.000000
 42
0.000000
  0
SEQEND
  5
a5
100
AcDbEntity
  0
POLYLINE
  5
a8
100
AcDbEntity
  8
DIMENSION
100
AcDb2dPolyline
 66
1
 70
0
 40
0.000000
 41
0.000000
 39
0.000000
  0
VERTEX
  5
aa
100
AcDbEntity
  8
DIMENSION
100
AcDbVertex
100
AcDb2dVertex
 10
84.100000
 20
0.000000
 40
0.000000
 41
0.000000
 42
0.000000
  0
VERTEX
  5
ab
100
AcDbEntity
  8
DIMENSION
100
AcDbVertex
100
AcDb2dVertex
 10
93.100000
 20
0.000000
 40
0.000000
 41
0.000000
 42
0.000000
  0
SEQEND
  5
a9
100
AcDbEntity
  0
POLYLINE
  5
ac
100
AcDbEntity
  8
DIMENSION
100
AcDb2dPolyline
 66
1
 70
0
 40
0.000000
 41
0.000000
 39
0.000000
  0
VERTEX
  5
ae
100
AcDbEntity
  8
DIMENSION
100
AcDbVertex
100
AcDb2dVertex
 10
84.100000
 20
52.600000
 40
0.000000
 41
0.000000
 42
0.000000
  0
VERTEX
  5
af
100
AcDbEntity
  8
DIMENSION
100
AcDbVertex
100
AcDb2dVertex
 10
93.100000
 20
52.600000
 40
0.000000
 41
0.000000
 42
0.000000
  0
SEQEND
  5
ad
100
AcDbEntity
  0
HATCH
  5
b4
100
AcDbEntity
  8
DIMENSION
100
AcDbHatch
 10
0.000000
 20
0.000000
 30
0.000000
210
0.000000
220
0.000000
230
1.000000
  2
SOLID
 70
1
 71
0
 91
1
 92
2
 72
1
 73
1
 93
3
 10
91.288000
 20
2.000000
 42
0.000000
 10
91.600000
 20
0.000000
 42
0.000000
 10
91.912000
 20
2.000000
 42
0.000000
 97
0
 75
0
 76
1
 98
1
 10
0.000000
 20
0.000000
  0
HATCH
  5
b9
100
AcDbEntity
  8
DIMENSION
100
AcDbHatch
 10
0.000000
 20
0.000000
 30
0.000000
210
0.000000
220
0.000000
230
1.000000
  2
SOLID
 70
1
 71
0
 91
1
 92
2
 72
1
 73
1
 93
3
 10
91.912000
 20
50.600000
 42
0.000000
 10
91.600000
 20
52.600000
 42
0.000000
 10
91.288000
 20
50.600000
 42
0.000000
 97
0
 75
0
 76
1
 98
1
 10
0.000000
 20
0.000000
  0
TEXT
  5
ba
100
AcDbEntity
  8
DIMENSION
100
AcDbText
 10
92.553000
 20
22.731000
 11
0.000000
 21
0.000000
 40
1.905000
 41
1.000000
 50
90.000000
  7
STANDARD
 71
0
 72
0
  1
52.6
100
AcDbText
 73
0
  0
POLYLINE
  5
bb
100
AcDbEntity
  8
DIMENSION
100
AcDb2dPolyline
 66
1
 70
0
 40
0.000000
 41
0.000000
 39
0.000000
  0
VERTEX
  5
bd
100
AcDbEntity
  8
DIMENSION
100
AcDbVertex
100
AcDb2dVertex
 10
88.600000
 20
29.441000
 40
0.000000
 41
0.000000
 42
0.000000
  0
VERTEX
  5
be
100
AcDbEntity
  8
DIMENSION
100
AcDbVertex
100
AcDb2dVertex
 10
88.600000
 20
48.800000
 40
0.000000
 41
0.000000
 42
0.000000
  0
SEQEND
  5
bc
100
AcDbEntity
  0
POLYLINE
  5
bf
100
AcDbEntity
  8
DIMENSION
100
AcDb2dPolyline
 66
1
 70
0
 40
0.000000
 41
0.000000
 39
0.000000
  0
VERTEX
  5
c1
100
AcDbEntity
  8
DIMENSION
100
AcDbVertex
100
AcDb2dVertex
 10
88.600000
 20
23.159000
 40
0.000000
 41
0.000000
 42
0.000000
  0
VERTEX
  5
c2
100
AcDbEntity
  8
DIMENSION
100
AcDbVertex
100
AcDb2dVertex
 10
88.600000
 20
3.800000
 40
0.000000
 41
0.000000
 42
0.000000
  0
SEQEND
  5
c0
100
AcDbEntity
  0
POLYLINE
  5
c3
100
AcDbEntity
  8
DIMENSION
100
AcDb2dPolyline
 66
1
 70
0
 40
0.000000
 41
0.000000
 39
0.000000
  0
VERTEX
  5
c5
100
AcDbEntity
  8
DIMENSION
100
AcDbVertex
100
AcDb2dVertex
 10
80.300000
 20
3.800000
 40
0.000000
 41
0.000000
 42
0.000000
  0
VERTEX
  5
c6
100
AcDbEntity
  8
DIMENSION
100
AcDbVertex
100
AcDb2dVertex
 10
90.100000
 20
3.800000
 40
0.000000
 41
0.000000
 42
0.000000
  0
SEQEND
  5
c4
100
AcDbEntity
  0
POLYLINE
  5
c7
100
AcDbEntity
  8
DIMENSION
100
AcDb2dPolyline
 66
1
 70
0
 40
0.000000
 41
0.000000
 39
0.000000
  0
VERTEX
  5
c9
100
AcDbEntity
  8
DIMENSION
100
AcDbVertex
100
AcDb2dVertex
 10
80.300000
 20
48.800000
 40
0.000000
 41
0.000000
 42
0.000000
  0
VERTEX
  5
ca
100
AcDbEntity
  8
DIMENSION
100
AcDbVertex
100
AcDb2dVertex
 10
90.100000
 20
48.800000
 40
0.000000
 41
0.000000
 42
0.000000
  0
SEQEND
  5
c8
100
AcDbEntity
  0
HATCH
  5
cf
100
AcDbEntity
  8
DIMENSION
100
AcDbHatch
 10
0.000000
 20
0.000000
 30
0.000000
210
0.000000
220
0.000000
230
1.000000
  2
SOLID
 70
1
 71
0
 91
1
 92
2
 72
1
 73
1
 93
3
 10
88.288000
 20
5.800000
 42
0.000000
 10
88.600000
 20
3.800000
 42
0.000000
 10
88.912000
 20
5.800000
 42
0.000000
 97
0
 75
0
 76
1
 98
1
 10
0.000000
 20
0.000000
  0
HATCH
  5
d4
100
AcDbEntity
  8
DIMENSION
100
AcDbHatch
 10
0.000000
 20
0.000000
 30
0.000000
210
0.000000
220
0.000000
230
1.000000
  2
SOLID
 70
1
 71
0
 91
1
 92
2
 72
1
 73
1
 93
3
 10
88.912000
 20
46.800000
 42
0.000000
 10
88.600000
 20
48.800000
 42
0.000000
 10
88.288000
 20
46.800000
 42
0.000000
 97
0
 75
0
 76
1
 98
1
 10
0.000000
 20
0.000000
  0
TEXT
  5
d5
100
AcDbEntity
  8
DIMENSION
100
AcDbText
 10
89.553000
 20
24.636000
 11
0.000000
 21
0.000000
 40
1.905000
 41
1.000000
 50
90.000000
  7
STANDARD
 71
0
 72
0
  1
45
100
AcDbText
 73
0
  0
POLYLINE
  5
d6
100
AcDbEntity
  8
DIMENSION
100
AcDb2dPolyline
 66
1
 70
0
 40
0.000000
 41
0.000000
 39
0.000000
  0
VERTEX
  5
d8
100
AcDbEntity
  8
DIMENSION
100
AcDbVertex
100
AcDb2dVertex
 10
-13.000000
 20
32.299000
 40
0.000000
 41
0.000000
 42
0.000000
  0
VERTEX
  5
d9
100
AcDbEntity
  8
DIMENSION
100
AcDbVertex
100
AcDb2dVertex
 10
-13.000000
 20
45.425000
 40
0.000000
 41
0.000000
 42
0.000000
  0
SEQEND
  5
d7
100
AcDbEntity
  0
POLYLINE
  5
da
100
AcDbEntity
  8
DIMENSION
100
AcDb2dPolyline
 66
1
 70
0
 40
0.000000
 41
0.000000
 39
0.000000
  0
VERTEX
  5
dc
100
AcDbEntity
  8
DIMENSION
100
AcDbVertex
100
AcDb2dVertex
 10
-13.000000
 20
20.301000
 40
0.000000
 41
0.000000
 42
0.000000
  0
VERTEX
  5
dd
100
AcDbEntity
  8
DIMENSION
100
AcDbVertex
100
AcDb2dVertex
 10
-13.000000
 20
7.175000
 40
0.000000
 41
0.000000
 42
0.000000
  0
SEQEND
  5
db
100
AcDbEntity
  0
POLYLINE
  5
de
100
AcDbEntity
  8
DIMENSION
100
AcDb2dPolyline
 66
1
 70
0
 40
0.000000
 41
0.000000
 39
0.000000
  0
VERTEX
  5
e0
100
AcDbEntity
  8
DIMENSION
100
AcDbVertex
100
AcDb2dVertex
 10
39.800000
 20
7.175000
 40
0.000000
 41
0.000000
 42
0.000000
  0
VERTEX
  5
e1
100
AcDbEntity
  8
DIMENSION
100
AcDbVertex
100
AcDb2dVertex
 10
-14.500000
 20
7.175000
 40
0.000000
 41
0.000000
 42
0.000000
  0
SEQEND
  5
df
100
AcDbEntity
  0
POLYLINE
  5
e2
100
AcDbEntity
  8
DIMENSION
100
AcDb2dPolyline
 66
1
 70
0
 40
0.000000
 41
0.000000
 39
0.000000
  0
VERTEX
  5
e4
100
AcDbEntity
  8
DIMENSION
100
AcDbVertex
100
AcDb2dVertex
 10
39.800000
 20
45.425000
 40
0.000000
 41
0.000000
 42
0.000000
  0
VERTEX
  5
e5
100
AcDbEntity
  8
DIMENSION
100
AcDbVertex
100
AcDb2dVertex
 10
-14.500000
 20
45.425000
 40
0.000000
 41
0.000000
 42
0.000000
  0
SEQEND
  5
e3
100
AcDbEntity
  0
HATCH
  5
ea
100
AcDbEntity
  8
DIMENSION
100
AcDbHatch
 10
0.000000
 20
0.000000
 30
0.000000
210
0.000000
220
0.000000
230
1.000000
  2
SOLID
 70
1
 71
0
 91
1
 92
2
 72
1
 73
1
 93
3
 10
-13.312000
 20
9.175000
 42
0.000000
 10
-13.000000
 20
7.175000
 42
0.000000
 10
-12.688000
 20
9.175000
 42
0.000000
 97
0
 75
0
 76
1
 98
1
 10
0.000000
 20
0.000000
  0
HATCH
  5
ef
100
AcDbEntity
  8
DIMENSION
100
AcDbHatch
 10
0.000000
 20
0.000000
 30
0.000000
210
0.000000
220
0.000000
230
1.000000
  2
SOLID
 70
1
 71
0
 91
1
 92
2
 72
1
 73
1
 93
3
 10
-12.688000
 20
43.425000
 42
0.000000
 10
-13.000000
 20
45.425000
 42
0.000000
 10
-13.312000
 20
43.425000
 42
0.000000
 97
0
 75
0
 76
1
 98
1
 10
0.000000
 20
0.000000
  0
TEXT
  5
f0
100
AcDbEntity
  8
DIMENSION
100
AcDbText
 10
-12.047000
 20
21.779000
 11
0.000000
 21
0.000000
 40
1.905000
 41
1.000000
 50
90.000000
  7
STANDARD
 71
0
 72
0
  1
38.25
100
AcDbText
 73
0
  0
POLYLINE
  5
f1
100
AcDbEntity
  8
DIMENSION
100
AcDb2dPolyline
 66
1
 70
0
 40
0.000000
 41
0.000000
 39
0.000000
  0
VERTEX
  5
f3
100
AcDbEntity
  8
DIMENSION
100
AcDbVertex
100
AcDb2dVertex
 10
-13.000000
 20
0.000000
 40
0.000000
 41
0.000000
 42
0.000000
  0
VERTEX
  5
f4
100
AcDbEntity
  8
DIMENSION
100
AcDbVertex
100
AcDb2dVertex
 10
-13.000000
 20
7.175000
 40
0.000000
 41
0.000000
 42
0.000000
  0
SEQEND
  5
f2
100
AcDbEntity
  0
POLYLINE
  5
f5
100
AcDbEntity
  8
DIMENSION
100
AcDb2dPolyline
 66
1
 70
0
 40
0.000000
 41
0.000000
 39
0.000000
  0
VERTEX
  5
f7
100
AcDbEntity
  8
DIMENSION
100
AcDbVertex
100
AcDb2dVertex
 10
-13.000000
 20
-0.501000
 40
0.000000
 41
0.000000
 42
0.000000
  0
VERTEX
  5
f8
100
AcDbEntity
  8
DIMENSION
100
AcDbVertex
100
AcDb2dVertex
 10
-13.000000
 20
0.000000
 40
0.000000
 41
0.000000
 42
0.000000
  0
SEQEND
  5
f6
100
AcDbEntity
  0
POLYLINE
  5
f9
100
AcDbEntity
  8
DIMENSION
100
AcDb2dPolyline
 66
1
 70
0
 40
0.000000
 41
0.000000
 39
0.000000
  0
VERTEX
  5
fb
100
AcDbEntity
  8
DIMENSION
100
AcDbVertex
100
AcDb2dVertex
 10
-1.500000
 20
0.000000
 40
0.000000
 41
0.000000
 42
0.000000
  0
VERTEX
  5
fc
100
AcDbEntity
  8
DIMENSION
100
AcDbVertex
100
AcDb2dVertex
 10
-14.500000
 20
0.000000
 40
0.000000
 41
0.000000
 42
0.000000
  0
SEQEND
  5
fa
100
AcDbEntity
  0
POLYLINE
  5
fd
100
AcDbEntity
  8
DIMENSION
100
AcDb2dPolyline
 66
1
 70
0
 40
0.000000
 41
0.000000
 39
0.000000
  0
VERTEX
  5
ff
100
AcDbEntity
  8
DIMENSION
100
AcDbVertex
100
AcDb2dVertex
 10
39.800000
 20
7.175000
 40
0.000000
 41
0.000000
 42
0.000000
  0
VERTEX
  5
100
100
AcDbEntity
  8
DIMENSION
100
AcDbVertex
100
AcDb2dVertex
 10
-14.500000
 20
7.175000
 40
0.000000
 41
0.000000
 42
0.000000
  0
SEQEND
  5
fe
100
AcDbEntity
  0
HATCH
  5
105
100
AcDbEntity
  8
DIMENSION
100
AcDbHatch
 10
0.000000
 20
0.000000
 30
0.000000
210
0.000000
220
0.000000
230
1.000000
  2
SOLID
 70
1
 71
0
 91
1
 92
2
 72
1
 73
1
 93
3
 10
-13.312000
 20
2.000000
 42
0.000000
 10
-13.000000
 20
0.000000
 42
0.000000
 10
-12.688000
 20
2.000000
 42
0.000000
 97
0
 75
0
 76
1
 98
1
 10
0.000000
 20
0.000000
  0
HATCH
  5
10a
100
AcDbEntity
  8
DIMENSION
100
AcDbHatch
 10
0.000000
 20
0.000000
 30
0.000000
210
0.000000
220
0.000000
230
1.000000
  2
SOLID
 70
1
 71
0
 91
1
 92
2
 72
1
 73
1
 93
3
 10
-12.688000
 20
5.175000
 42
0.000000
 10
-13.000000
 20
7.175000
 42
0.000000
 10
-13.312000
 20
5.175000
 42
0.000000
 97
0
 75
0
 76
1
 98
1
 10
0.000000
 20
0.000000
  0
TEXT
  5
10b
100
AcDbEntity
  8
DIMENSION
100
AcDbText
 10
-12.047000
 20
-11.021000
 11
0.000000
 21
0.000000
 40
1.905000
 41
1.000000
 50
90.000000
  7
STANDARD
 71
0
 72
0
  1
7.175
100
AcDbText
 73
0
  0
POLYLINE
  5
10c
100
AcDbEntity
  8
DIMENSION
100
AcDb2dPolyline
 66
1
 70
0
 40
0.000000
 41
0.000000
 39
0.000000
  0
VERTEX
  5
10e
100
AcDbEntity
  8
DIMENSION
100
AcDbVertex
100
AcDb2dVertex
 10
85.600000
 20
7.800000
 40
0.000000
 41
0.000000
 42
0.000000
  0
VERTEX
  5
10f
100
AcDbEntity
  8
DIMENSION
100
AcDbVertex
100
AcDb2dVertex
 10
85.600000
 20
3.800000
 40
0.000000
 41
0.000000
 42
0.000000
  0
SEQEND
  5
10d
100
AcDbEntity
  0
POLYLINE
  5
110
100
AcDbEntity
  8
DIMENSION
100
AcDb2dPolyline
 66
1
 70
0
 40
0.000000
 41
0.000000
 39
0.000000
  0
VERTEX
  5
112
100
AcDbEntity
  8
DIMENSION
100
AcDbVertex
100
AcDb2dVertex
 10
85.600000
 20
-2.906000
 40
0.000000
 41
0.000000
 42
0.000000
  0
VERTEX
  5
113
100
AcDbEntity
  8
DIMENSION
100
AcDbVertex
100
AcDb2dVertex
 10
85.600000
 20
0.000000
 40
0.000000
 41
0.000000
 42
0.000000
  0
SEQEND
  5
111
100
AcDbEntity
  0
POLYLINE
  5
114
100
AcDbEntity
  8
DIMENSION
100
AcDb2dPolyline
 66
1
 70
0
 40
0.000000
 41
0.000000
 39
0.000000
  0
VERTEX
  5
116
100
AcDbEntity
  8
DIMENSION
100
AcDbVertex
100
AcDb2dVertex
 10
1.500000
 20
0.000000
 40
0.000000
 41
0.000000
 42
0.000000
  0
VERTEX
  5
117
100
AcDbEntity
  8
DIMENSION
100
AcDbVertex
100
AcDb2dVertex
 10
87.100000
 20
0.000000
 40
0.000000
 41
0.000000
 42
0.000000
  0
SEQEND
  5
115
100
AcDbEntity
  0
POLYLINE
  5
118
100
AcDbEntity
  8
DIMENSION
100
AcDb2dPolyline
 66
1
 70
0
 40
0.000000
 41
0.000000
 39
0.000000
  0
VERTEX
  5
11a
100
AcDbEntity
  8
DIMENSION
100
AcDbVertex
100
AcDb2dVertex
 10
5.300000
 20
3.800000
 40
0.000000
 41
0.000000
 42
0.000000
  0
VERTEX
  5
11b
100
AcDbEntity
  8
DIMENSION
100
AcDbVertex
100
AcDb2dVertex
 10
87.100000
 20
3.800000
 40
0.000000
 41
0.000000
 42
0.000000
  0
SEQEND
  5
119
100
AcDbEntity
  0
HATCH
  5
120
100
AcDbEntity
  8
DIMENSION
100
AcDbHatch
 10
0.000000
 20
0.000000
 30
0.000000
210
0.000000
220
0.000000
230
1.000000
  2
SOLID
 70
1
 71
0
 91
1
 92
2
 72
1
 73
1
 93
3
 10
85.912000
 20
-2.000000
 42
0.000000
 10
85.600000
 20
0.000000
 42
0.000000
 10
85.288000
 20
-2.000000
 42
0.000000
 97
0
 75
0
 76
1
 98
1
 10
0.000000
 20
0.000000
  0
HATCH
  5
125
100
AcDbEntity
  8
DIMENSION
100
AcDbHatch
 10
0.000000
 20
0.000000
 30
0.000000
210
0.000000
220
0.000000
230
1.000000
  2
SOLID
 70
1
 71
0
 91
1
 92
2
 72
1
 73
1
 93
3
 10
85.288000
 20
5.800000
 42
0.000000
 10
85.600000
 20
3.800000
 42
0.000000
 10
85.912000
 20
5.800000
 42
0.000000
 97
0
 75
0
 76
1
 98
1
 10
0.000000
 20
0.000000
  0
TEXT
  5
126
100
AcDbEntity
  8
DIMENSION
100
AcDbText
 10
86.553000
 20
-9.616000
 11
0.000000
 21
0.000000
 40
1.905000
 41
1.000000
 50
90.000000
  7
STANDARD
 71
0
 72
0
  1
3.8
100
AcDbText
 73
0
  0
POLYLINE
  5
127
100
AcDbEntity
  8
DIMENSION
100
AcDb2dPolyline
 66
1
 70
0
 40
0.000000
 41
0.000000
 39
0.000000
  0
VERTEX
  5
129
100
AcDbEntity
  8
DIMENSION
100
AcDbVertex
100
AcDb2dVertex
 10
85.600000
 20
26.941000
 40
0.000000
 41
0.000000
 42
0.000000
  0
VERTEX
  5
12a
100
AcDbEntity
  8
DIMENSION
100
AcDbVertex
100
AcDb2dVertex
 10
85.600000
 20
43.800000
 40
0.000000
 41
0.000000
 42
0.000000
  0
SEQEND
  5
128
100
AcDbEntity
  0
POLYLINE
  5
12b
100
AcDbEntity
  8
DIMENSION
100
AcDb2dPolyline
 66
1
 70
0
 40
0.000000
 41
0.000000
 39
0.000000
  0
VERTEX
  5
12d
100
AcDbEntity
  8
DIMENSION
100
AcDbVertex
100
AcDb2dVertex
 10
85.600000
 20
20.659000
 40
0.000000
 41
0.000000
 42
0.000000
  0
VERTEX
  5
12e
100
AcDbEntity
  8
DIMENSION
100
AcDbVertex
100
AcDb2dVertex
 10
85.600000
 20
3.800000
 40
0.000000
 41
0.000000
 42
0.000000
  0
SEQEND
  5
12c
100
AcDbEntity
  0
POLYLINE
  5
12f
100
AcDbEntity
  8
DIMENSION
100
AcDb2dPolyline
 66
1
 70
0
 40
0.000000
 41
0.000000
 39
0.000000
  0
VERTEX
  5
131
100
AcDbEntity
  8
DIMENSION
100
AcDbVertex
100
AcDb2dVertex
 10
80.300000
 20
3.800000
 40
0.000000
 41
0.000000
 42
0.000000
  0
VERTEX
  5
132
100
AcDbEntity
  8
DIMENSION
100
AcDbVertex
100
AcDb2dVertex
 10
87.100000
 20
3.800000
 40
0.000000
 41
0.000000
 42
0.000000
  0
SEQEND
  5
130
100
AcDbEntity
  0
POLYLINE
  5
133
100
AcDbEntity
  8
DIMENSION
100
AcDb2dPolyline
 66
1
 70
0
 40
0.000000
 41
0.000000
 39
0.000000
  0
VERTEX
  5
135
100
AcDbEntity
  8
DIMENSION
100
AcDbVertex
100
AcDb2dVertex
 10
80.300000
 20
43.800000
 40
0.000000
 41
0.000000
 42
0.000000
  0
VERTEX
  5
136
100
AcDbEntity
  8
DIMENSION
100
AcDbVertex
100
AcDb2dVertex
 10
87.100000
 20
43.800000
 40
0.000000
 41
0.000000
 42
0.000000
  0
SEQEND
  5
134
100
AcDbEntity
  0
HATCH
  5
13b
100
AcDbEntity
  8
DIMENSION
100
AcDbHatch
 10
0.000000
 20
0.000000
 30
0.000000
210
0.000000
220
0.000000
230
1.000000
  2
SOLID
 70
1
 71
0
 91
1
 92
2
 72
1
 73
1
 93
3
 10
85.288000
 20
5.800000
 42
0.000000
 10
85.600000
 20
3.800000
 42
0.000000
 10
85.912000
 20
5.800000
 42
0.000000
 97
0
 75
0
 76
1
 98
1
 10
0.000000
 20
0.000000
  0
HATCH
  5
140
100
AcDbEntity
  8
DIMENSION
100
AcDbHatch
 10
0.000000
 20
0.000000
 30
0.000000
210
0.000000
220
0.000000
230
1.000000
  2
SOLID
 70
1
 71
0
 91
1
 92
2
 72
1
 73
1
 93
3
 10
85.912000
 20
41.800000
 42
0.000000
 10
85.600000
 20
43.800000
 42
0.000000
 10
85.288000
 20
41.800000
 42
0.000000
 97
0
 75
0
 76
1
 98
1
 10
0.000000
 20
0.000000
  0
TEXT
  5
141
100
AcDbEntity
  8
DIMENSION
100
AcDbText
 10
86.553000
 20
22.136000
 11
0.000000
 21
0.000000
 40
1.905000
 41
1.000000
 50
90.000000
  7
STANDARD
 71
0
 72
0
  1
40
100
AcDbText
 73
0
  0
POLYLINE
  5
142
100
AcDbEntity
  8
DIMENSION
100
AcDb2dPolyline
 66
1
 70
0
 40
0.000000
 41
0.000000
 39
0.000000
  0
VERTEX
  5
144
100
AcDbEntity
  8
DIMENSION
100
AcDbVertex
100
AcDb2dVertex
 10
46.846000
 20
-6.000000
 40
0.000000
 41
0.000000
 42
0.000000
  0
VERTEX
  5
145
100
AcDbEntity
  8
DIMENSION
100
AcDbVertex
100
AcDb2dVertex
 10
82.600000
 20
-6.000000
 40
0.000000
 41
0.000000
 42
0.000000
  0
SEQEND
  5
143
100
AcDbEntity
  0
POLYLINE
  5
146
100
AcDbEntity
  8
DIMENSION
100
AcDb2dPolyline
 66
1
 70
0
 40
0.000000
 41
0.000000
 39
0.000000
  0
VERTEX
  5
148
100
AcDbEntity
  8
DIMENSION
100
AcDbVertex
100
AcDb2dVertex
 10
36.754000
 20
-6.000000
 40
0.000000
 41
0.000000
 42
0.000000
  0
VERTEX
  5
149
100
AcDbEntity
  8
DIMENSION
100
AcDbVertex
100
AcDb2dVertex
 10
0.000000
 20
-6.000000
 40
0.000000
 41
0.000000
 42
0.000000
  0
SEQEND
  5
147
100
AcDbEntity
  0
POLYLINE
  5
14a
100
AcDbEntity
  8
DIMENSION
100
AcDb2dPolyline
 66
1
 70
0
 40
0.000000
 41
0.000000
 39
0.000000
  0
VERTEX
  5
14c
100
AcDbEntity
  8
DIMENSION
100
AcDbVertex
100
AcDb2dVertex
 10
82.600000
 20
-1.500000
 40
0.000000
 41
0.000000
 42
0.000000
  0
VERTEX
  5
14d
100
AcDbEntity
  8
DIMENSION
100
AcDbVertex
100
AcDb2dVertex
 10
82.600000
 20
-7.500000
 40
0.000000
 41
0.000000
 42
0.000000
  0
SEQEND
  5
14b
100
AcDbEntity
  0
POLYLINE
  5
14e
100
AcDbEntity
  8
DIMENSION
100
AcDb2dPolyline
 66
1
 70
0
 40
0.000000
 41
0.000000
 39
0.000000
  0
VERTEX
  5
150
100
AcDbEntity
  8
DIMENSION
100
AcDbVertex
100
AcDb2dVertex
 10
0.000000
 20
-1.500000
 40
0.000000
 41
0.000000
 42
0.000000
  0
VERTEX
  5
151
100
AcDbEntity
  8
DIMENSION
100
AcDbVertex
100
AcDb2dVertex
 10
0.000000
 20
-7.500000
 40
0.000000
 41
0.000000
 42
0.000000
  0
SEQEND
  5
14f
100
AcDbEntity
  0
HATCH
  5
156
100
AcDbEntity
  8
DIMENSION
100
AcDbHatch
 10
0.000000
 20
0.000000
 30
0.000000
210
0.000000
220
0.000000
230
1.000000
  2
SOLID
 70
1
 71
0
 91
1
 92
2
 72
1
 73
1
 93
3
 10
2.000000
 20
-5.688000
 42
0.000000
 10
0.000000
 20
-6.000000
 42
0.000000
 10
2.000000
 20
-6.312000
 42
0.000000
 97
0
 75
0
 76
1
 98
1
 10
0.000000
 20
0.000000
  0
HATCH
  5
15b
100
AcDbEntity
  8
DIMENSION
100
AcDbHatch
 10
0.000000
 20
0.000000
 30
0.000000
210
0.000000
220
0.000000
230
1.000000
  2
SOLID
 70
1
 71
0
 91
1
 92
2
 72
1
 73
1
 93
3
 10
80.600000
 20
-6.312000
 42
0.000000
 10
82.600000
 20
-6.000000
 42
0.000000
 10
80.600000
 20
-5.688000
 42
0.000000
 97
0
 75
0
 76
1
 98
1
 10
0.000000
 20
0.000000
  0
TEXT
  5
15c
100
AcDbEntity
  8
DIMENSION
100
AcDbText
 10
38.231000
 20
-6.953000
 11
0.000000
 21
0.000000
 40
1.905000
 41
1.000000
 50
0.000000
  7
STANDARD
 71
0
 72
0
  1
82.6
100
AcDbText
 73
0
  0
POLYLINE
  5
15d
100
AcDbEntity
  8
DIMENSION
100
AcDb2dPolyline
 66
1
 70
0
 40
0.000000
 41
0.000000
 39
0.000000
  0
VERTEX
  5
15f
100
AcDbEntity
  8
DIMENSION
100
AcDbVertex
100
AcDb2dVertex
 10
44.941000
 20
-3.000000
 40
0.000000
 41
0.000000
 42
0.000000
  0
VERTEX
  5
160
100
AcDbEntity
  8
DIMENSION
100
AcDbVertex
100
AcDb2dVertex
 10
78.800000
 20
-3.000000
 40
0.000000
 41
0.000000
 42
0.000000
  0
SEQEND
  5
15e
100
AcDbEntity
  0
POLYLINE
  5
161
100
AcDbEntity
  8
DIMENSION
100
AcDb2dPolyline
 66
1
 70
0
 40
0.000000
 41
0.000000
 39
0.000000
  0
VERTEX
  5
163
100
AcDbEntity
  8
DIMENSION
100
AcDbVertex
100
AcDb2dVertex
 10
38.659000
 20
-3.000000
 40
0.000000
 41
0.000000
 42
0.000000
  0
VERTEX
  5
164
100
AcDbEntity
  8
DIMENSION
100
AcDbVertex
100
AcDb2dVertex
 10
3.800000
 20
-3.000000
 40
0.000000
 41
0.000000
 42
0.000000
  0
SEQEND
  5
162
100
AcDbEntity
  0
POLYLINE
  5
165
100
AcDbEntity
  8
DIMENSION
100
AcDb2dPolyline
 66
1
 70
0
 40
0.000000
 41
0.000000
 39
0.000000
  0
VERTEX
  5
167
100
AcDbEntity
  8
DIMENSION
100
AcDbVertex
100
AcDb2dVertex
 10
78.800000
 20
2.300000
 40
0.000000
 41
0.000000
 42
0.000000
  0
VERTEX
  5
168
100
AcDbEntity
  8
DIMENSION
100
AcDbVertex
100
AcDb2dVertex
 10
78.800000
 20
-4.500000
 40
0.000000
 41
0.000000
 42
0.000000
  0
SEQEND
  5
166
100
AcDbEntity
  0
POLYLINE
  5
169
100
AcDbEntity
  8
DIMENSION
100
AcDb2dPolyline
 66
1
 70
0
 40
0.000000
 41
0.000000
 39
0.000000
  0
VERTEX
  5
16b
100
AcDbEntity
  8
DIMENSION
100
AcDbVertex
100
AcDb2dVertex
 10
3.800000
 20
2.300000
 40
0.000000
 41
0.000000
 42
0.000000
  0
VERTEX
  5
16c
100
AcDbEntity
  8
DIMENSION
100
AcDbVertex
100
AcDb2dVertex
 10
3.800000
 20
-4.500000
 40
0.000000
 41
0.000000
 42
0.000000
  0
SEQEND
  5
16a
100
AcDbEntity
  0
HATCH
  5
171
100
AcDbEntity
  8
DIMENSION
100
AcDbHatch
 10
0.000000
 20
0.000000
 30
0.000000
210
0.000000
220
0.000000
230
1.000000
  2
SOLID
 70
1
 71
0
 91
1
 92
2
 72
1
 73
1
 93
3
 10
5.800000
 20
-2.688000
 42
0.000000
 10
3.800000
 20
-3.000000
 42
0.000000
 10
5.800000
 20
-3.312000
 42
0.000000
 97
0
 75
0
 76
1
 98
1
 10
0.000000
 20
0.000000
  0
HATCH
  5
176
100
AcDbEntity
  8
DIMENSION
100
AcDbHatch
 10
0.000000
 20
0.000000
 30
0.000000
210
0.000000
220
0.000000
230
1.000000
  2
SOLID
 70
1
 71
0
 91
1
 92
2
 72
1
 73
1
 93
3
 10
76.800000
 20
-3.312000
 42
0.000000
 10
78.800000
 20
-3.000000
 42
0.000000
 10
76.800000
 20
-2.688000
 42
0.000000
 97
0
 75
0
 76
1
 98
1
 10
0.000000
 20
0.000000
  0
TEXT
  5
177
100
AcDbEntity
  8
DIMENSION
100
AcDbText
 10
40.136000
 20
-3.953000
 11
0.000000
 21
0.000000
 40
1.905000
 41
1.000000
 50
0.000000
  7
STANDARD
 71
0
 72
0
  1
75
100
AcDbText
 73
0
  0
POLYLINE
  5
178
100
AcDbEntity
  8
DIMENSION
100
AcDb2dPolyline
 66
1
 70
0
 40
0.000000
 41
0.000000
 39
0.000000
  0
VERTEX
  5
17a
100
AcDbEntity
  8
DIMENSION
100
AcDbVertex
100
AcDb2dVertex
 10
7.800000
 20
-3.000000
 40
0.000000
 41
0.000000
 42
0.000000
  0
VERTEX
  5
17b
100
AcDbEntity
  8
DIMENSION
100
AcDbVertex
100
AcDb2dVertex
 10
3.800000
 20
-3.000000
 40
0.000000
 41
0.000000
 42
0.000000
  0
SEQEND
  5
179
100
AcDbEntity
  0
POLYLINE
  5
17c
100
AcDbEntity
  8
DIMENSION
100
AcDb2dPolyline
 66
1
 70
0
 40
0.000000
 41
0.000000
 39
0.000000
  0
VERTEX
  5
17e
100
AcDbEntity
  8
DIMENSION
100
AcDbVertex
100
AcDb2dVertex
 10
-2.906000
 20
-3.000000
 40
0.000000
 41
0.000000
 42
0.000000
  0
VERTEX
  5
17f
100
AcDbEntity
  8
DIMENSION
100
AcDbVertex
100
AcDb2dVertex
 10
0.000000
 20
-3.000000
 40
0.000000
 41
0.000000
 42
0.000000
  0
SEQEND
  5
17d
100
AcDbEntity
  0
POLYLINE
  5
180
100
AcDbEntity
  8
DIMENSION
100
AcDb2dPolyline
 66
1
 70
0
 40
0.000000
 41
0.000000
 39
0.000000
  0
VERTEX
  5
182
100
AcDbEntity
  8
DIMENSION
100
AcDbVertex
100
AcDb2dVertex
 10
3.800000
 20
2.300000
 40
0.000000
 41
0.000000
 42
0.000000
  0
VERTEX
  5
183
100
AcDbEntity
  8
DIMENSION
100
AcDbVertex
100
AcDb2dVertex
 10
3.800000
 20
-4.500000
 40
0.000000
 41
0.000000
 42
0.000000
  0
SEQEND
  5
181
100
AcDbEntity
  0
POLYLINE
  5
184
100
AcDbEntity
  8
DIMENSION
100
AcDb2dPolyline
 66
1
 70
0
 40
0.000000
 41
0.000000
 39
0.000000
  0
VERTEX
  5
186
100
AcDbEntity
  8
DIMENSION
100
AcDbVertex
100
AcDb2dVertex
 10
0.000000
 20
-1.500000
 40
0.000000
 41
0.000000
 42
0.000000
  0
VERTEX
  5
187
100
AcDbEntity
  8
DIMENSION
100
AcDbVertex
100
AcDb2dVertex
 10
0.000000
 20
-4.500000
 40
0.000000
 41
0.000000
 42
0.000000
  0
SEQEND
  5
185
100
AcDbEntity
  0
HATCH
  5
18c
100
AcDbEntity
  8
DIMENSION
100
AcDbHatch
 10
0.000000
 20
0.000000
 30
0.000000
210
0.000000
220
0.000000
230
1.000000
  2
SOLID
 70
1
 71
0
 91
1
 92
2
 72
1
 73
1
 93
3
 10
-2.000000
 20
-3.312000
 42
0.000000
 10
0.000000
 20
-3.000000
 42
0.000000
 10
-2.000000
 20
-2.688000
 42
0.000000
 97
0
 75
0
 76
1
 98
1
 10
0.000000
 20
0.000000
  0
HATCH
  5
191
100
AcDbEntity
  8
DIMENSION
100
AcDbHatch
 10
0.000000
 20
0.000000
 30
0.000000
210
0.000000
220
0.000000
230
1.000000
  2
SOLID
 70
1
 71
0
 91
1
 92
2
 72
1
 73
1
 93
3
 10
5.800000
 20
-2.688000
 42
0.000000
 10
3.800000
 20
-3.000000
 42
0.000000
 10
5.800000
 20
-3.312000
 42
0.000000
 97
0
 75
0
 76
1
 98
1
 10
0.000000
 20
0.000000
  0
TEXT
  5
192
100
AcDbEntity
  8
DIMENSION
100
AcDbText
 10
-9.616000
 20
-3.953000
 11
0.000000
 21
0.000000
 40
1.905000
 41
1.000000
 50
0.000000
  7
STANDARD
 71
0
 72
0
  1
3.8
100
AcDbText
 73
0
  0
HATCH
  5
198
100
AcDbEntity
  8
ETCH
100
AcDbHatch
 10
0.000000
 20
0.000000
 30
0.000000
210
0.000000
220
0.000000
230
1.000000
  2
SOLID
 70
1
 71
0
 91
1
 92
2
 72
1
 73
1
 93
4
 10
68.675000
 20
43.139000
 42
0.000000
 10
69.125000
 20
43.139000
 42
0.000000
 10
69.125000
 20
41.539000
 42
0.000000
 10
68.675000
 20
41.539000
 42
0.000000
 97
0
 75
0
 76
1
 98
1
 10
0.000000
 20
0.000000
  0
TEXT
  5
199
100
AcDbEntity
  8
PINNUMBERS
100
AcDbText
 10
68.288333
 20
41.609000
 11
68.500000
 21
41.609000
 40
0.635000
 41
0.878740
 50
270.000000
  7
STANDARD
 71
0
 72
2
  1
1
100
AcDbText
 73
0
  0
HATCH
  5
19f
100
AcDbEntity
  8
ETCH
100
AcDbHatch
 10
0.000000
 20
0.000000
 30
0.000000
210
0.000000
220
0.000000
230
1.000000
  2
SOLID
 70
1
 71
0
 91
1
 92
2
 72
1
 73
1
 93
4
 10
68.675000
 20
49.311000
 42
0.000000
 10
69.125000
 20
49.311000
 42
0.000000
 10
69.125000
 20
47.711000
 42
0.000000
 10
68.675000
 20
47.711000
 42
0.000000
 97
0
 75
0
 76
1
 98
1
 10
0.000000
 20
0.000000
  0
TEXT
  5
1a0
100
AcDbEntity
  8
PINNUMBERS
100
AcDbText
 10
68.388333
 20
47.781000
 11
68.600000
 21
47.781000
 40
0.635000
 41
0.878740
 50
270.000000
  7
STANDARD
 71
0
 72
2
  1
2
100
AcDbText
 73
0
  0
HATCH
  5
1a6
100
AcDbEntity
  8
ETCH
100
AcDbHatch
 10
0.000000
 20
0.000000
 30
0.000000
210
0.000000
220
0.000000
230
1.000000
  2
SOLID
 70
1
 71
0
 91
1
 92
2
 72
1
 73
1
 93
4
 10
67.875000
 20
43.139000
 42
0.000000
 10
68.325000
 20
43.139000
 42
0.000000
 10
68.325000
 20
41.539000
 42
0.000000
 10
67.875000
 20
41.539000
 42
0.000000
 97
0
 75
0
 76
1
 98
1
 10
0.000000
 20
0.000000
  0
TEXT
  5
1a7
100
AcDbEntity
  8
PINNUMBERS
100
AcDbText
 10
67.488333
 20
41.609000
 11
67.700000
 21
41.609000
 40
0.635000
 41
0.878740
 50
270.000000
  7
STANDARD
 71
0
 72
2
  1
3
100
AcDbText
 73
0
  0
HATCH
  5
1ad
100
AcDbEntity
  8
ETCH
100
AcDbHatch
 10
0.000000
 20
0.000000
 30
0.000000
210
0.000000
220
0.000000
230
1.000000
  2
SOLID
 70
1
 71
0
 91
1
 92
2
 72
1
 73
1
 93
4
 10
67.875000
 20
49.311000
 42
0.000000
 10
68.325000
 20
49.311000
 42
0.000000
 10
68.325000
 20
47.711000
 42
0.000000
 10
67.875000
 20
47.711000
 42
0.000000
 97
0
 75
0
 76
1
 98
1
 10
0.000000
 20
0.000000
  0
TEXT
  5
1ae
100
AcDbEntity
  8
PINNUMBERS
100
AcDbText
 10
67.588333
 20
47.781000
 11
67.800000
 21
47.781000
 40
0.635000
 41
0.878740
 50
270.000000
  7
STANDARD
 71
0
 72
2
  1
4
100
AcDbText
 73
0
  0
HATCH
  5
1b4
100
AcDbEntity
  8
ETCH
100
AcDbHatch
 10
0.000000
 20
0.000000
 30
0.000000
210
0.000000
220
0.000000
230
1.000000
  2
SOLID
 70
1
 71
0
 91
1
 92
2
 72
1
 73
1
 93
4
 10
67.075000
 20
43.139000
 42
0.000000
 10
67.525000
 20
43.139000
 42
0.000000
 10
67.525000
 20
41.539000
 42
0.000000
 10
67.075000
 20
41.539000
 42
0.000000
 97
0
 75
0
 76
1
 98
1
 10
0.000000
 20
0.000000
  0
TEXT
  5
1b5
100
AcDbEntity
  8
PINNUMBERS
100
AcDbText
 10
66.688333
 20
41.609000
 11
66.900000
 21
41.609000
 40
0.635000
 41
0.878740
 50
270.000000
  7
STANDARD
 71
0
 72
2
  1
5
100
AcDbText
 73
0
  0
HATCH
  5
1bb
100
AcDbEntity
  8
ETCH
100
AcDbHatch
 10
0.000000
 20
0.000000
 30
0.000000
210
0.000000
220
0.000000
230
1.000000
  2
SOLID
 70
1
 71
0
 91
1
 92
2
 72
1
 73
1
 93
4
 10
67.075000
 20
49.311000
 42
0.000000
 10
67.525000
 20
49.311000
 42
0.000000
 10
67.525000
 20
47.711000
 42
0.000000
 10
67.075000
 20
47.711000
 42
0.000000
 97
0
 75
0
 76
1
 98
1
 10
0.000000
 20
0.000000
  0
TEXT
  5
1bc
100
AcDbEntity
  8
PINNUMBERS
100
AcDbText
 10
66.788333
 20
47.781000
 11
67.000000
 21
47.781000
 40
0.635000
 41
0.878740
 50
270.000000
  7
STANDARD
 71
0
 72
2
  1
6
100
AcDbText
 73
0
  0
HATCH
  5
1c2
100
AcDbEntity
  8
ETCH
100
AcDbHatch
 10
0.000000
 20
0.000000
 30
0.000000
210
0.000000
220
0.000000
230
1.000000
  2
SOLID
 70
1
 71
0
 91
1
 92
2
 72
1
 73
1
 93
4
 10
66.275000
 20
43.139000
 42
0.000000
 10
66.725000
 20
43.139000
 42
0.000000
 10
66.725000
 20
41.539000
 42
0.000000
 10
66.275000
 20
41.539000
 42
0.000000
 97
0
 75
0
 76
1
 98
1
 10
0.000000
 20
0.000000
  0
TEXT
  5
1c3
100
AcDbEntity
  8
PINNUMBERS
100
AcDbText
 10
65.888333
 20
41.609000
 11
66.100000
 21
41.609000
 40
0.635000
 41
0.878740
 50
270.000000
  7
STANDARD
 71
0
 72
2
  1
7
100
AcDbText
 73
0
  0
HATCH
  5
1c9
100
AcDbEntity
  8
ETCH
100
AcDbHatch
 10
0.000000
 20
0.000000
 30
0.000000
210
0.000000
220
0.000000
230
1.000000
  2
SOLID
 70
1
 71
0
 91
1
 92
2
 72
1
 73
1
 93
4
 10
66.275000
 20
49.311000
 42
0.000000
 10
66.725000
 20
49.311000
 42
0.000000
 10
66.725000
 20
47.711000
 42
0.000000
 10
66.275000
 20
47.711000
 42
0.000000
 97
0
 75
0
 76
1
 98
1
 10
0.000000
 20
0.000000
  0
TEXT
  5
1ca
100
AcDbEntity
  8
PINNUMBERS
100
AcDbText
 10
65.988333
 20
47.781000
 11
66.200000
 21
47.781000
 40
0.635000
 41
0.878740
 50
270.000000
  7
STANDARD
 71
0
 72
2
  1
8
100
AcDbText
 73
0
  0
HATCH
  5
1d0
100
AcDbEntity
  8
ETCH
100
AcDbHatch
 10
0.000000
 20
0.000000
 30
0.000000
210
0.000000
220
0.000000
230
1.000000
  2
SOLID
 70
1
 71
0
 91
1
 92
2
 72
1
 73
1
 93
4
 10
65.475000
 20
43.139000
 42
0.000000
 10
65.925000
 20
43.139000
 42
0.000000
 10
65.925000
 20
41.539000
 42
0.000000
 10
65.475000
 20
41.539000
 42
0.000000
 97
0
 75
0
 76
1
 98
1
 10
0.000000
 20
0.000000
  0
TEXT
  5
1d1
100
AcDbEntity
  8
PINNUMBERS
100
AcDbText
 10
65.088333
 20
41.609000
 11
65.300000
 21
41.609000
 40
0.635000
 41
0.878740
 50
270.000000
  7
STANDARD
 71
0
 72
2
  1
9
100
AcDbText
 73
0
  0
HATCH
  5
1d7
100
AcDbEntity
  8
ETCH
100
AcDbHatch
 10
0.000000
 20
0.000000
 30
0.000000
210
0.000000
220
0.000000
230
1.000000
  2
SOLID
 70
1
 71
0
 91
1
 92
2
 72
1
 73
1
 93
4
 10
65.475000
 20
49.311000
 42
0.000000
 10
65.925000
 20
49.311000
 42
0.000000
 10
65.925000
 20
47.711000
 42
0.000000
 10
65.475000
 20
47.711000
 42
0.000000
 97
0
 75
0
 76
1
 98
1
 10
0.000000
 20
0.000000
  0
TEXT
  5
1d8
100
AcDbEntity
  8
PINNUMBERS
100
AcDbText
 10
65.188333
 20
47.781000
 11
65.400000
 21
47.781000
 40
0.635000
 41
0.878740
 50
270.000000
  7
STANDARD
 71
0
 72
2
  1
10
100
AcDbText
 73
0
  0
HATCH
  5
1de
100
AcDbEntity
  8
ETCH
100
AcDbHatch
 10
0.000000
 20
0.000000
 30
0.000000
210
0.000000
220
0.000000
230
1.000000
  2
SOLID
 70
1
 71
0
 91
1
 92
2
 72
1
 73
1
 93
4
 10
64.675000
 20
43.139000
 42
0.000000
 10
65.125000
 20
43.139000
 42
0.000000
 10
65.125000
 20
41.539000
 42
0.000000
 10
64.675000
 20
41.539000
 42
0.000000
 97
0
 75
0
 76
1
 98
1
 10
0.000000
 20
0.000000
  0
TEXT
  5
1df
100
AcDbEntity
  8
PINNUMBERS
100
AcDbText
 10
64.288333
 20
41.609000
 11
64.500000
 21
41.609000
 40
0.635000
 41
0.878740
 50
270.000000
  7
STANDARD
 71
0
 72
2
  1
11
100
AcDbText
 73
0
  0
HATCH
  5
1e5
100
AcDbEntity
  8
ETCH
100
AcDbHatch
 10
0.000000
 20
0.000000
 30
0.000000
210
0.000000
220
0.000000
230
1.000000
  2
SOLID
 70
1
 71
0
 91
1
 92
2
 72
1
 73
1
 93
4
 10
64.675000
 20
49.311000
 42
0.000000
 10
65.125000
 20
49.311000
 42
0.000000
 10
65.125000
 20
47.711000
 42
0.000000
 10
64.675000
 20
47.711000
 42
0.000000
 97
0
 75
0
 76
1
 98
1
 10
0.000000
 20
0.000000
  0
TEXT
  5
1e6
100
AcDbEntity
  8
PINNUMBERS
100
AcDbText
 10
64.388333
 20
47.781000
 11
64.600000
 21
47.781000
 40
0.635000
 41
0.878740
 50
270.000000
  7
STANDARD
 71
0
 72
2
  1
12
100
AcDbText
 73
0
  0
HATCH
  5
1ec
100
AcDbEntity
  8
ETCH
100
AcDbHatch
 10
0.000000
 20
0.000000
 30
0.000000
210
0.000000
220
0.000000
230
1.000000
  2
SOLID
 70
1
 71
0
 91
1
 92
2
 72
1
 73
1
 93
4
 10
63.875000
 20
43.139000
 42
0.000000
 10
64.325000
 20
43.139000
 42
0.000000
 10
64.325000
 20
41.539000
 42
0.000000
 10
63.875000
 20
41.539000
 42
0.000000
 97
0
 75
0
 76
1
 98
1
 10
0.000000
 20
0.000000
  0
TEXT
  5
1ed
100
AcDbEntity
  8
PINNUMBERS
100
AcDbText
 10
63.488333
 20
41.609000
 11
63.700000
 21
41.609000
 40
0.635000
 41
0.878740
 50
270.000000
  7
STANDARD
 71
0
 72
2
  1
13
100
AcDbText
 73
0
  0
HATCH
  5
1f3
100
AcDbEntity
  8
ETCH
100
AcDbHatch
 10
0.000000
 20
0.000000
 30
0.000000
210
0.000000
220
0.000000
230
1.000000
  2
SOLID
 70
1
 71
0
 91
1
 92
2
 72
1
 73
1
 93
4
 10
63.875000
 20
49.311000
 42
0.000000
 10
64.325000
 20
49.311000
 42
0.000000
 10
64.325000
 20
47.711000
 42
0.000000
 10
63.875000
 20
47.711000
 42
0.000000
 97
0
 75
0
 76
1
 98
1
 10
0.000000
 20
0.000000
  0
TEXT
  5
1f4
100
AcDbEntity
  8
PINNUMBERS
100
AcDbText
 10
63.588333
 20
47.781000
 11
63.800000
 21
47.781000
 40
0.635000
 41
0.878740
 50
270.000000
  7
STANDARD
 71
0
 72
2
  1
14
100
AcDbText
 73
0
  0
HATCH
  5
1fa
100
AcDbEntity
  8
ETCH
100
AcDbHatch
 10
0.000000
 20
0.000000
 30
0.000000
210
0.000000
220
0.000000
230
1.000000
  2
SOLID
 70
1
 71
0
 91
1
 92
2
 72
1
 73
1
 93
4
 10
63.075000
 20
43.139000
 42
0.000000
 10
63.525000
 20
43.139000
 42
0.000000
 10
63.525000
 20
41.539000
 42
0.000000
 10
63.075000
 20
41.539000
 42
0.000000
 97
0
 75
0
 76
1
 98
1
 10
0.000000
 20
0.000000
  0
TEXT
  5
1fb
100
AcDbEntity
  8
PINNUMBERS
100
AcDbText
 10
62.688333
 20
41.609000
 11
62.900000
 21
41.609000
 40
0.635000
 41
0.878740
 50
270.000000
  7
STANDARD
 71
0
 72
2
  1
15
100
AcDbText
 73
0
  0
HATCH
  5
201
100
AcDbEntity
  8
ETCH
100
AcDbHatch
 10
0.000000
 20
0.000000
 30
0.000000
210
0.000000
220
0.000000
230
1.000000
  2
SOLID
 70
1
 71
0
 91
1
 92
2
 72
1
 73
1
 93
4
 10
63.075000
 20
49.311000
 42
0.000000
 10
63.525000
 20
49.311000
 42
0.000000
 10
63.525000
 20
47.711000
 42
0.000000
 10
63.075000
 20
47.711000
 42
0.000000
 97
0
 75
0
 76
1
 98
1
 10
0.000000
 20
0.000000
  0
TEXT
  5
202
100
AcDbEntity
  8
PINNUMBERS
100
AcDbText
 10
62.788333
 20
47.781000
 11
63.000000
 21
47.781000
 40
0.635000
 41
0.878740
 50
270.000000
  7
STANDARD
 71
0
 72
2
  1
16
100
AcDbText
 73
0
  0
HATCH
  5
208
100
AcDbEntity
  8
ETCH
100
AcDbHatch
 10
0.000000
 20
0.000000
 30
0.000000
210
0.000000
220
0.000000
230
1.000000
  2
SOLID
 70
1
 71
0
 91
1
 92
2
 72
1
 73
1
 93
4
 10
62.275000
 20
43.139000
 42
0.000000
 10
62.725000
 20
43.139000
 42
0.000000
 10
62.725000
 20
41.539000
 42
0.000000
 10
62.275000
 20
41.539000
 42
0.000000
 97
0
 75
0
 76
1
 98
1
 10
0.000000
 20
0.000000
  0
TEXT
  5
209
100
AcDbEntity
  8
PINNUMBERS
100
AcDbText
 10
61.888333
 20
41.609000
 11
62.100000
 21
41.609000
 40
0.635000
 41
0.878740
 50
270.000000
  7
STANDARD
 71
0
 72
2
  1
17
100
AcDbText
 73
0
  0
HATCH
  5
20f
100
AcDbEntity
  8
ETCH
100
AcDbHatch
 10
0.000000
 20
0.000000
 30
0.000000
210
0.000000
220
0.000000
230
1.000000
  2
SOLID
 70
1
 71
0
 91
1
 92
2
 72
1
 73
1
 93
4
 10
62.275000
 20
49.311000
 42
0.000000
 10
62.725000
 20
49.311000
 42
0.000000
 10
62.725000
 20
47.711000
 42
0.000000
 10
62.275000
 20
47.711000
 42
0.000000
 97
0
 75
0
 76
1
 98
1
 10
0.000000
 20
0.000000
  0
TEXT
  5
210
100
AcDbEntity
  8
PINNUMBERS
100
AcDbText
 10
61.988333
 20
47.781000
 11
62.200000
 21
47.781000
 40
0.635000
 41
0.878740
 50
270.000000
  7
STANDARD
 71
0
 72
2
  1
18
100
AcDbText
 73
0
  0
HATCH
  5
216
100
AcDbEntity
  8
ETCH
100
AcDbHatch
 10
0.000000
 20
0.000000
 30
0.000000
210
0.000000
220
0.000000
230
1.000000
  2
SOLID
 70
1
 71
0
 91
1
 92
2
 72
1
 73
1
 93
4
 10
61.475000
 20
43.139000
 42
0.000000
 10
61.925000
 20
43.139000
 42
0.000000
 10
61.925000
 20
41.539000
 42
0.000000
 10
61.475000
 20
41.539000
 42
0.000000
 97
0
 75
0
 76
1
 98
1
 10
0.000000
 20
0.000000
  0
TEXT
  5
217
100
AcDbEntity
  8
PINNUMBERS
100
AcDbText
 10
61.088333
 20
41.609000
 11
61.300000
 21
41.609000
 40
0.635000
 41
0.878740
 50
270.000000
  7
STANDARD
 71
0
 72
2
  1
19
100
AcDbText
 73
0
  0
HATCH
  5
21d
100
AcDbEntity
  8
ETCH
100
AcDbHatch
 10
0.000000
 20
0.000000
 30
0.000000
210
0.000000
220
0.000000
230
1.000000
  2
SOLID
 70
1
 71
0
 91
1
 92
2
 72
1
 73
1
 93
4
 10
61.475000
 20
49.311000
 42
0.000000
 10
61.925000
 20
49.311000
 42
0.000000
 10
61.925000
 20
47.711000
 42
0.000000
 10
61.475000
 20
47.711000
 42
0.000000
 97
0
 75
0
 76
1
 98
1
 10
0.000000
 20
0.000000
  0
TEXT
  5
21e
100
AcDbEntity
  8
PINNUMBERS
100
AcDbText
 10
61.188333
 20
47.781000
 11
61.400000
 21
47.781000
 40
0.635000
 41
0.878740
 50
270.000000
  7
STANDARD
 71
0
 72
2
  1
20
100
AcDbText
 73
0
  0
HATCH
  5
224
100
AcDbEntity
  8
ETCH
100
AcDbHatch
 10
0.000000
 20
0.000000
 30
0.000000
210
0.000000
220
0.000000
230
1.000000
  2
SOLID
 70
1
 71
0
 91
1
 92
2
 72
1
 73
1
 93
4
 10
60.675000
 20
43.139000
 42
0.000000
 10
61.125000
 20
43.139000
 42
0.000000
 10
61.125000
 20
41.539000
 42
0.000000
 10
60.675000
 20
41.539000
 42
0.000000
 97
0
 75
0
 76
1
 98
1
 10
0.000000
 20
0.000000
  0
TEXT
  5
225
100
AcDbEntity
  8
PINNUMBERS
100
AcDbText
 10
60.288333
 20
41.609000
 11
60.500000
 21
41.609000
 40
0.635000
 41
0.878740
 50
270.000000
  7
STANDARD
 71
0
 72
2
  1
21
100
AcDbText
 73
0
  0
HATCH
  5
22b
100
AcDbEntity
  8
ETCH
100
AcDbHatch
 10
0.000000
 20
0.000000
 30
0.000000
210
0.000000
220
0.000000
230
1.000000
  2
SOLID
 70
1
 71
0
 91
1
 92
2
 72
1
 73
1
 93
4
 10
60.675000
 20
49.311000
 42
0.000000
 10
61.125000
 20
49.311000
 42
0.000000
 10
61.125000
 20
47.711000
 42
0.000000
 10
60.675000
 20
47.711000
 42
0.000000
 97
0
 75
0
 76
1
 98
1
 10
0.000000
 20
0.000000
  0
TEXT
  5
22c
100
AcDbEntity
  8
PINNUMBERS
100
AcDbText
 10
60.388333
 20
47.781000
 11
60.600000
 21
47.781000
 40
0.635000
 41
0.878740
 50
270.000000
  7
STANDARD
 71
0
 72
2
  1
22
100
AcDbText
 73
0
  0
HATCH
  5
232
100
AcDbEntity
  8
ETCH
100
AcDbHatch
 10
0.000000
 20
0.000000
 30
0.000000
210
0.000000
220
0.000000
230
1.000000
  2
SOLID
 70
1
 71
0
 91
1
 92
2
 72
1
 73
1
 93
4
 10
59.875000
 20
43.139000
 42
0.000000
 10
60.325000
 20
43.139000
 42
0.000000
 10
60.325000
 20
41.539000
 42
0.000000
 10
59.875000
 20
41.539000
 42
0.000000
 97
0
 75
0
 76
1
 98
1
 10
0.000000
 20
0.000000
  0
TEXT
  5
233
100
AcDbEntity
  8
PINNUMBERS
100
AcDbText
 10
59.488333
 20
41.609000
 11
59.700000
 21
41.609000
 40
0.635000
 41
0.878740
 50
270.000000
  7
STANDARD
 71
0
 72
2
  1
23
100
AcDbText
 73
0
  0
HATCH
  5
239
100
AcDbEntity
  8
ETCH
100
AcDbHatch
 10
0.000000
 20
0.000000
 30
0.000000
210
0.000000
220
0.000000
230
1.000000
  2
SOLID
 70
1
 71
0
 91
1
 92
2
 72
1
 73
1
 93
4
 10
59.875000
 20
49.311000
 42
0.000000
 10
60.325000
 20
49.311000
 42
0.000000
 10
60.325000
 20
47.711000
 42
0.000000
 10
59.875000
 20
47.711000
 42
0.000000
 97
0
 75
0
 76
1
 98
1
 10
0.000000
 20
0.000000
  0
TEXT
  5
23a
100
AcDbEntity
  8
PINNUMBERS
100
AcDbText
 10
59.588333
 20
47.781000
 11
59.800000
 21
47.781000
 40
0.635000
 41
0.878740
 50
270.000000
  7
STANDARD
 71
0
 72
2
  1
24
100
AcDbText
 73
0
  0
HATCH
  5
240
100
AcDbEntity
  8
ETCH
100
AcDbHatch
 10
0.000000
 20
0.000000
 30
0.000000
210
0.000000
220
0.000000
230
1.000000
  2
SOLID
 70
1
 71
0
 91
1
 92
2
 72
1
 73
1
 93
4
 10
59.075000
 20
43.139000
 42
0.000000
 10
59.525000
 20
43.139000
 42
0.000000
 10
59.525000
 20
41.539000
 42
0.000000
 10
59.075000
 20
41.539000
 42
0.000000
 97
0
 75
0
 76
1
 98
1
 10
0.000000
 20
0.000000
  0
TEXT
  5
241
100
AcDbEntity
  8
PINNUMBERS
100
AcDbText
 10
58.688333
 20
41.609000
 11
58.900000
 21
41.609000
 40
0.635000
 41
0.878740
 50
270.000000
  7
STANDARD
 71
0
 72
2
  1
25
100
AcDbText
 73
0
  0
HATCH
  5
247
100
AcDbEntity
  8
ETCH
100
AcDbHatch
 10
0.000000
 20
0.000000
 30
0.000000
210
0.000000
220
0.000000
230
1.000000
  2
SOLID
 70
1
 71
0
 91
1
 92
2
 72
1
 73
1
 93
4
 10
59.075000
 20
49.311000
 42
0.000000
 10
59.525000
 20
49.311000
 42
0.000000
 10
59.525000
 20
47.711000
 42
0.000000
 10
59.075000
 20
47.711000
 42
0.000000
 97
0
 75
0
 76
1
 98
1
 10
0.000000
 20
0.000000
  0
TEXT
  5
248
100
AcDbEntity
  8
PINNUMBERS
100
AcDbText
 10
58.788333
 20
47.781000
 11
59.000000
 21
47.781000
 40
0.635000
 41
0.878740
 50
270.000000
  7
STANDARD
 71
0
 72
2
  1
26
100
AcDbText
 73
0
  0
HATCH
  5
24e
100
AcDbEntity
  8
ETCH
100
AcDbHatch
 10
0.000000
 20
0.000000
 30
0.000000
210
0.000000
220
0.000000
230
1.000000
  2
SOLID
 70
1
 71
0
 91
1
 92
2
 72
1
 73
1
 93
4
 10
58.275000
 20
43.139000
 42
0.000000
 10
58.725000
 20
43.139000
 42
0.000000
 10
58.725000
 20
41.539000
 42
0.000000
 10
58.275000
 20
41.539000
 42
0.000000
 97
0
 75
0
 76
1
 98
1
 10
0.000000
 20
0.000000
  0
TEXT
  5
24f
100
AcDbEntity
  8
PINNUMBERS
100
AcDbText
 10
57.888333
 20
41.609000
 11
58.100000
 21
41.609000
 40
0.635000
 41
0.878740
 50
270.000000
  7
STANDARD
 71
0
 72
2
  1
27
100
AcDbText
 73
0
  0
HATCH
  5
255
100
AcDbEntity
  8
ETCH
100
AcDbHatch
 10
0.000000
 20
0.000000
 30
0.000000
210
0.000000
220
0.000000
230
1.000000
  2
SOLID
 70
1
 71
0
 91
1
 92
2
 72
1
 73
1
 93
4
 10
58.275000
 20
49.311000
 42
0.000000
 10
58.725000
 20
49.311000
 42
0.000000
 10
58.725000
 20
47.711000
 42
0.000000
 10
58.275000
 20
47.711000
 42
0.000000
 97
0
 75
0
 76
1
 98
1
 10
0.000000
 20
0.000000
  0
TEXT
  5
256
100
AcDbEntity
  8
PINNUMBERS
100
AcDbText
 10
57.988333
 20
47.781000
 11
58.200000
 21
47.781000
 40
0.635000
 41
0.878740
 50
270.000000
  7
STANDARD
 71
0
 72
2
  1
28
100
AcDbText
 73
0
  0
HATCH
  5
25c
100
AcDbEntity
  8
ETCH
100
AcDbHatch
 10
0.000000
 20
0.000000
 30
0.000000
210
0.000000
220
0.000000
230
1.000000
  2
SOLID
 70
1
 71
0
 91
1
 92
2
 72
1
 73
1
 93
4
 10
57.475000
 20
43.139000
 42
0.000000
 10
57.925000
 20
43.139000
 42
0.000000
 10
57.925000
 20
41.539000
 42
0.000000
 10
57.475000
 20
41.539000
 42
0.000000
 97
0
 75
0
 76
1
 98
1
 10
0.000000
 20
0.000000
  0
TEXT
  5
25d
100
AcDbEntity
  8
PINNUMBERS
100
AcDbText
 10
57.088333
 20
41.609000
 11
57.300000
 21
41.609000
 40
0.635000
 41
0.878740
 50
270.000000
  7
STANDARD
 71
0
 72
2
  1
29
100
AcDbText
 73
0
  0
HATCH
  5
263
100
AcDbEntity
  8
ETCH
100
AcDbHatch
 10
0.000000
 20
0.000000
 30
0.000000
210
0.000000
220
0.000000
230
1.000000
  2
SOLID
 70
1
 71
0
 91
1
 92
2
 72
1
 73
1
 93
4
 10
57.475000
 20
49.311000
 42
0.000000
 10
57.925000
 20
49.311000
 42
0.000000
 10
57.925000
 20
47.711000
 42
0.000000
 10
57.475000
 20
47.711000
 42
0.000000
 97
0
 75
0
 76
1
 98
1
 10
0.000000
 20
0.000000
  0
TEXT
  5
264
100
AcDbEntity
  8
PINNUMBERS
100
AcDbText
 10
57.188333
 20
47.781000
 11
57.400000
 21
47.781000
 40
0.635000
 41
0.878740
 50
270.000000
  7
STANDARD
 71
0
 72
2
  1
30
100
AcDbText
 73
0
  0
HATCH
  5
26a
100
AcDbEntity
  8
ETCH
100
AcDbHatch
 10
0.000000
 20
0.000000
 30
0.000000
210
0.000000
220
0.000000
230
1.000000
  2
SOLID
 70
1
 71
0
 91
1
 92
2
 72
1
 73
1
 93
4
 10
56.675000
 20
43.139000
 42
0.000000
 10
57.125000
 20
43.139000
 42
0.000000
 10
57.125000
 20
41.539000
 42
0.000000
 10
56.675000
 20
41.539000
 42
0.000000
 97
0
 75
0
 76
1
 98
1
 10
0.000000
 20
0.000000
  0
TEXT
  5
26b
100
AcDbEntity
  8
PINNUMBERS
100
AcDbText
 10
56.288333
 20
41.609000
 11
56.500000
 21
41.609000
 40
0.635000
 41
0.878740
 50
270.000000
  7
STANDARD
 71
0
 72
2
  1
31
100
AcDbText
 73
0
  0
HATCH
  5
271
100
AcDbEntity
  8
ETCH
100
AcDbHatch
 10
0.000000
 20
0.000000
 30
0.000000
210
0.000000
220
0.000000
230
1.000000
  2
SOLID
 70
1
 71
0
 91
1
 92
2
 72
1
 73
1
 93
4
 10
56.675000
 20
49.311000
 42
0.000000
 10
57.125000
 20
49.311000
 42
0.000000
 10
57.125000
 20
47.711000
 42
0.000000
 10
56.675000
 20
47.711000
 42
0.000000
 97
0
 75
0
 76
1
 98
1
 10
0.000000
 20
0.000000
  0
TEXT
  5
272
100
AcDbEntity
  8
PINNUMBERS
100
AcDbText
 10
56.388333
 20
47.781000
 11
56.600000
 21
47.781000
 40
0.635000
 41
0.878740
 50
270.000000
  7
STANDARD
 71
0
 72
2
  1
32
100
AcDbText
 73
0
  0
HATCH
  5
278
100
AcDbEntity
  8
ETCH
100
AcDbHatch
 10
0.000000
 20
0.000000
 30
0.000000
210
0.000000
220
0.000000
230
1.000000
  2
SOLID
 70
1
 71
0
 91
1
 92
2
 72
1
 73
1
 93
4
 10
55.875000
 20
43.139000
 42
0.000000
 10
56.325000
 20
43.139000
 42
0.000000
 10
56.325000
 20
41.539000
 42
0.000000
 10
55.875000
 20
41.539000
 42
0.000000
 97
0
 75
0
 76
1
 98
1
 10
0.000000
 20
0.000000
  0
TEXT
  5
279
100
AcDbEntity
  8
PINNUMBERS
100
AcDbText
 10
55.488333
 20
41.609000
 11
55.700000
 21
41.609000
 40
0.635000
 41
0.878740
 50
270.000000
  7
STANDARD
 71
0
 72
2
  1
33
100
AcDbText
 73
0
  0
HATCH
  5
27f
100
AcDbEntity
  8
ETCH
100
AcDbHatch
 10
0.000000
 20
0.000000
 30
0.000000
210
0.000000
220
0.000000
230
1.000000
  2
SOLID
 70
1
 71
0
 91
1
 92
2
 72
1
 73
1
 93
4
 10
55.875000
 20
49.311000
 42
0.000000
 10
56.325000
 20
49.311000
 42
0.000000
 10
56.325000
 20
47.711000
 42
0.000000
 10
55.875000
 20
47.711000
 42
0.000000
 97
0
 75
0
 76
1
 98
1
 10
0.000000
 20
0.000000
  0
TEXT
  5
280
100
AcDbEntity
  8
PINNUMBERS
100
AcDbText
 10
55.588333
 20
47.781000
 11
55.800000
 21
47.781000
 40
0.635000
 41
0.878740
 50
270.000000
  7
STANDARD
 71
0
 72
2
  1
34
100
AcDbText
 73
0
  0
HATCH
  5
286
100
AcDbEntity
  8
ETCH
100
AcDbHatch
 10
0.000000
 20
0.000000
 30
0.000000
210
0.000000
220
0.000000
230
1.000000
  2
SOLID
 70
1
 71
0
 91
1
 92
2
 72
1
 73
1
 93
4
 10
55.075000
 20
43.139000
 42
0.000000
 10
55.525000
 20
43.139000
 42
0.000000
 10
55.525000
 20
41.539000
 42
0.000000
 10
55.075000
 20
41.539000
 42
0.000000
 97
0
 75
0
 76
1
 98
1
 10
0.000000
 20
0.000000
  0
TEXT
  5
287
100
AcDbEntity
  8
PINNUMBERS
100
AcDbText
 10
54.688333
 20
41.609000
 11
54.900000
 21
41.609000
 40
0.635000
 41
0.878740
 50
270.000000
  7
STANDARD
 71
0
 72
2
  1
35
100
AcDbText
 73
0
  0
HATCH
  5
28d
100
AcDbEntity
  8
ETCH
100
AcDbHatch
 10
0.000000
 20
0.000000
 30
0.000000
210
0.000000
220
0.000000
230
1.000000
  2
SOLID
 70
1
 71
0
 91
1
 92
2
 72
1
 73
1
 93
4
 10
55.075000
 20
49.311000
 42
0.000000
 10
55.525000
 20
49.311000
 42
0.000000
 10
55.525000
 20
47.711000
 42
0.000000
 10
55.075000
 20
47.711000
 42
0.000000
 97
0
 75
0
 76
1
 98
1
 10
0.000000
 20
0.000000
  0
TEXT
  5
28e
100
AcDbEntity
  8
PINNUMBERS
100
AcDbText
 10
54.788333
 20
47.781000
 11
55.000000
 21
47.781000
 40
0.635000
 41
0.878740
 50
270.000000
  7
STANDARD
 71
0
 72
2
  1
36
100
AcDbText
 73
0
  0
HATCH
  5
294
100
AcDbEntity
  8
ETCH
100
AcDbHatch
 10
0.000000
 20
0.000000
 30
0.000000
210
0.000000
220
0.000000
230
1.000000
  2
SOLID
 70
1
 71
0
 91
1
 92
2
 72
1
 73
1
 93
4
 10
54.275000
 20
43.139000
 42
0.000000
 10
54.725000
 20
43.139000
 42
0.000000
 10
54.725000
 20
41.539000
 42
0.000000
 10
54.275000
 20
41.539000
 42
0.000000
 97
0
 75
0
 76
1
 98
1
 10
0.000000
 20
0.000000
  0
TEXT
  5
295
100
AcDbEntity
  8
PINNUMBERS
100
AcDbText
 10
53.888333
 20
41.609000
 11
54.100000
 21
41.609000
 40
0.635000
 41
0.878740
 50
270.000000
  7
STANDARD
 71
0
 72
2
  1
37
100
AcDbText
 73
0
  0
HATCH
  5
29b
100
AcDbEntity
  8
ETCH
100
AcDbHatch
 10
0.000000
 20
0.000000
 30
0.000000
210
0.000000
220
0.000000
230
1.000000
  2
SOLID
 70
1
 71
0
 91
1
 92
2
 72
1
 73
1
 93
4
 10
54.275000
 20
49.311000
 42
0.000000
 10
54.725000
 20
49.311000
 42
0.000000
 10
54.725000
 20
47.711000
 42
0.000000
 10
54.275000
 20
47.711000
 42
0.000000
 97
0
 75
0
 76
1
 98
1
 10
0.000000
 20
0.000000
  0
TEXT
  5
29c
100
AcDbEntity
  8
PINNUMBERS
100
AcDbText
 10
53.988333
 20
47.781000
 11
54.200000
 21
47.781000
 40
0.635000
 41
0.878740
 50
270.000000
  7
STANDARD
 71
0
 72
2
  1
38
100
AcDbText
 73
0
  0
HATCH
  5
2a2
100
AcDbEntity
  8
ETCH
100
AcDbHatch
 10
0.000000
 20
0.000000
 30
0.000000
210
0.000000
220
0.000000
230
1.000000
  2
SOLID
 70
1
 71
0
 91
1
 92
2
 72
1
 73
1
 93
4
 10
53.475000
 20
43.139000
 42
0.000000
 10
53.925000
 20
43.139000
 42
0.000000
 10
53.925000
 20
41.539000
 42
0.000000
 10
53.475000
 20
41.539000
 42
0.000000
 97
0
 75
0
 76
1
 98
1
 10
0.000000
 20
0.000000
  0
TEXT
  5
2a3
100
AcDbEntity
  8
PINNUMBERS
100
AcDbText
 10
53.088333
 20
41.609000
 11
53.300000
 21
41.609000
 40
0.635000
 41
0.878740
 50
270.000000
  7
STANDARD
 71
0
 72
2
  1
39
100
AcDbText
 73
0
  0
HATCH
  5
2a9
100
AcDbEntity
  8
ETCH
100
AcDbHatch
 10
0.000000
 20
0.000000
 30
0.000000
210
0.000000
220
0.000000
230
1.000000
  2
SOLID
 70
1
 71
0
 91
1
 92
2
 72
1
 73
1
 93
4
 10
53.475000
 20
49.311000
 42
0.000000
 10
53.925000
 20
49.311000
 42
0.000000
 10
53.925000
 20
47.711000
 42
0.000000
 10
53.475000
 20
47.711000
 42
0.000000
 97
0
 75
0
 76
1
 98
1
 10
0.000000
 20
0.000000
  0
TEXT
  5
2aa
100
AcDbEntity
  8
PINNUMBERS
100
AcDbText
 10
53.188333
 20
47.781000
 11
53.400000
 21
47.781000
 40
0.635000
 41
0.878740
 50
270.000000
  7
STANDARD
 71
0
 72
2
  1
40
100
AcDbText
 73
0
  0
HATCH
  5
2b0
100
AcDbEntity
  8
ETCH
100
AcDbHatch
 10
0.000000
 20
0.000000
 30
0.000000
210
0.000000
220
0.000000
230
1.000000
  2
SOLID
 70
1
 71
0
 91
1
 92
2
 72
1
 73
1
 93
4
 10
48.675000
 20
43.139000
 42
0.000000
 10
49.125000
 20
43.139000
 42
0.000000
 10
49.125000
 20
41.539000
 42
0.000000
 10
48.675000
 20
41.539000
 42
0.000000
 97
0
 75
0
 76
1
 98
1
 10
0.000000
 20
0.000000
  0
TEXT
  5
2b1
100
AcDbEntity
  8
PINNUMBERS
100
AcDbText
 10
48.288333
 20
41.609000
 11
48.500000
 21
41.609000
 40
0.635000
 41
0.878740
 50
270.000000
  7
STANDARD
 71
0
 72
2
  1
41
100
AcDbText
 73
0
  0
HATCH
  5
2b7
100
AcDbEntity
  8
ETCH
100
AcDbHatch
 10
0.000000
 20
0.000000
 30
0.000000
210
0.000000
220
0.000000
230
1.000000
  2
SOLID
 70
1
 71
0
 91
1
 92
2
 72
1
 73
1
 93
4
 10
48.675000
 20
49.311000
 42
0.000000
 10
49.125000
 20
49.311000
 42
0.000000
 10
49.125000
 20
47.711000
 42
0.000000
 10
48.675000
 20
47.711000
 42
0.000000
 97
0
 75
0
 76
1
 98
1
 10
0.000000
 20
0.000000
  0
TEXT
  5
2b8
100
AcDbEntity
  8
PINNUMBERS
100
AcDbText
 10
48.388333
 20
47.781000
 11
48.600000
 21
47.781000
 40
0.635000
 41
0.878740
 50
270.000000
  7
STANDARD
 71
0
 72
2
  1
42
100
AcDbText
 73
0
  0
HATCH
  5
2be
100
AcDbEntity
  8
ETCH
100
AcDbHatch
 10
0.000000
 20
0.000000
 30
0.000000
210
0.000000
220
0.000000
230
1.000000
  2
SOLID
 70
1
 71
0
 91
1
 92
2
 72
1
 73
1
 93
4
 10
47.875000
 20
43.139000
 42
0.000000
 10
48.325000
 20
43.139000
 42
0.000000
 10
48.325000
 20
41.539000
 42
0.000000
 10
47.875000
 20
41.539000
 42
0.000000
 97
0
 75
0
 76
1
 98
1
 10
0.000000
 20
0.000000
  0
TEXT
  5
2bf
100
AcDbEntity
  8
PINNUMBERS
100
AcDbText
 10
47.488333
 20
41.609000
 11
47.700000
 21
41.609000
 40
0.635000
 41
0.878740
 50
270.000000
  7
STANDARD
 71
0
 72
2
  1
43
100
AcDbText
 73
0
  0
HATCH
  5
2c5
100
AcDbEntity
  8
ETCH
100
AcDbHatch
 10
0.000000
 20
0.000000
 30
0.000000
210
0.000000
220
0.000000
230
1.000000
  2
SOLID
 70
1
 71
0
 91
1
 92
2
 72
1
 73
1
 93
4
 10
47.875000
 20
49.311000
 42
0.000000
 10
48.325000
 20
49.311000
 42
0.000000
 10
48.325000
 20
47.711000
 42
0.000000
 10
47.875000
 20
47.711000
 42
0.000000
 97
0
 75
0
 76
1
 98
1
 10
0.000000
 20
0.000000
  0
TEXT
  5
2c6
100
AcDbEntity
  8
PINNUMBERS
100
AcDbText
 10
47.588333
 20
47.781000
 11
47.800000
 21
47.781000
 40
0.635000
 41
0.878740
 50
270.000000
  7
STANDARD
 71
0
 72
2
  1
44
100
AcDbText
 73
0
  0
HATCH
  5
2cc
100
AcDbEntity
  8
ETCH
100
AcDbHatch
 10
0.000000
 20
0.000000
 30
0.000000
210
0.000000
220
0.000000
230
1.000000
  2
SOLID
 70
1
 71
0
 91
1
 92
2
 72
1
 73
1
 93
4
 10
47.075000
 20
43.139000
 42
0.000000
 10
47.525000
 20
43.139000
 42
0.000000
 10
47.525000
 20
41.539000
 42
0.000000
 10
47.075000
 20
41.539000
 42
0.000000
 97
0
 75
0
 76
1
 98
1
 10
0.000000
 20
0.000000
  0
TEXT
  5
2cd
100
AcDbEntity
  8
PINNUMBERS
100
AcDbText
 10
46.688333
 20
41.609000
 11
46.900000
 21
41.609000
 40
0.635000
 41
0.878740
 50
270.000000
  7
STANDARD
 71
0
 72
2
  1
45
100
AcDbText
 73
0
  0
HATCH
  5
2d3
100
AcDbEntity
  8
ETCH
100
AcDbHatch
 10
0.000000
 20
0.000000
 30
0.000000
210
0.000000
220
0.000000
230
1.000000
  2
SOLID
 70
1
 71
0
 91
1
 92
2
 72
1
 73
1
 93
4
 10
47.075000
 20
49.311000
 42
0.000000
 10
47.525000
 20
49.311000
 42
0.000000
 10
47.525000
 20
47.711000
 42
0.000000
 10
47.075000
 20
47.711000
 42
0.000000
 97
0
 75
0
 76
1
 98
1
 10
0.000000
 20
0.000000
  0
TEXT
  5
2d4
100
AcDbEntity
  8
PINNUMBERS
100
AcDbText
 10
46.788333
 20
47.781000
 11
47.000000
 21
47.781000
 40
0.635000
 41
0.878740
 50
270.000000
  7
STANDARD
 71
0
 72
2
  1
46
100
AcDbText
 73
0
  0
HATCH
  5
2da
100
AcDbEntity
  8
ETCH
100
AcDbHatch
 10
0.000000
 20
0.000000
 30
0.000000
210
0.000000
220
0.000000
230
1.000000
  2
SOLID
 70
1
 71
0
 91
1
 92
2
 72
1
 73
1
 93
4
 10
46.275000
 20
43.139000
 42
0.000000
 10
46.725000
 20
43.139000
 42
0.000000
 10
46.725000
 20
41.539000
 42
0.000000
 10
46.275000
 20
41.539000
 42
0.000000
 97
0
 75
0
 76
1
 98
1
 10
0.000000
 20
0.000000
  0
TEXT
  5
2db
100
AcDbEntity
  8
PINNUMBERS
100
AcDbText
 10
45.888333
 20
41.609000
 11
46.100000
 21
41.609000
 40
0.635000
 41
0.878740
 50
270.000000
  7
STANDARD
 71
0
 72
2
  1
47
100
AcDbText
 73
0
  0
HATCH
  5
2e1
100
AcDbEntity
  8
ETCH
100
AcDbHatch
 10
0.000000
 20
0.000000
 30
0.000000
210
0.000000
220
0.000000
230
1.000000
  2
SOLID
 70
1
 71
0
 91
1
 92
2
 72
1
 73
1
 93
4
 10
46.275000
 20
49.311000
 42
0.000000
 10
46.725000
 20
49.311000
 42
0.000000
 10
46.725000
 20
47.711000
 42
0.000000
 10
46.275000
 20
47.711000
 42
0.000000
 97
0
 75
0
 76
1
 98
1
 10
0.000000
 20
0.000000
  0
TEXT
  5
2e2
100
AcDbEntity
  8
PINNUMBERS
100
AcDbText
 10
45.988333
 20
47.781000
 11
46.200000
 21
47.781000
 40
0.635000
 41
0.878740
 50
270.000000
  7
STANDARD
 71
0
 72
2
  1
48
100
AcDbText
 73
0
  0
HATCH
  5
2e8
100
AcDbEntity
  8
ETCH
100
AcDbHatch
 10
0.000000
 20
0.000000
 30
0.000000
210
0.000000
220
0.000000
230
1.000000
  2
SOLID
 70
1
 71
0
 91
1
 92
2
 72
1
 73
1
 93
4
 10
45.475000
 20
43.139000
 42
0.000000
 10
45.925000
 20
43.139000
 42
0.000000
 10
45.925000
 20
41.539000
 42
0.000000
 10
45.475000
 20
41.539000
 42
0.000000
 97
0
 75
0
 76
1
 98
1
 10
0.000000
 20
0.000000
  0
TEXT
  5
2e9
100
AcDbEntity
  8
PINNUMBERS
100
AcDbText
 10
45.088333
 20
41.609000
 11
45.300000
 21
41.609000
 40
0.635000
 41
0.878740
 50
270.000000
  7
STANDARD
 71
0
 72
2
  1
49
100
AcDbText
 73
0
  0
HATCH
  5
2ef
100
AcDbEntity
  8
ETCH
100
AcDbHatch
 10
0.000000
 20
0.000000
 30
0.000000
210
0.000000
220
0.000000
230
1.000000
  2
SOLID
 70
1
 71
0
 91
1
 92
2
 72
1
 73
1
 93
4
 10
45.475000
 20
49.311000
 42
0.000000
 10
45.925000
 20
49.311000
 42
0.000000
 10
45.925000
 20
47.711000
 42
0.000000
 10
45.475000
 20
47.711000
 42
0.000000
 97
0
 75
0
 76
1
 98
1
 10
0.000000
 20
0.000000
  0
TEXT
  5
2f0
100
AcDbEntity
  8
PINNUMBERS
100
AcDbText
 10
45.188333
 20
47.781000
 11
45.400000
 21
47.781000
 40
0.635000
 41
0.878740
 50
270.000000
  7
STANDARD
 71
0
 72
2
  1
50
100
AcDbText
 73
0
  0
HATCH
  5
2f6
100
AcDbEntity
  8
ETCH
100
AcDbHatch
 10
0.000000
 20
0.000000
 30
0.000000
210
0.000000
220
0.000000
230
1.000000
  2
SOLID
 70
1
 71
0
 91
1
 92
2
 72
1
 73
1
 93
4
 10
44.675000
 20
43.139000
 42
0.000000
 10
45.125000
 20
43.139000
 42
0.000000
 10
45.125000
 20
41.539000
 42
0.000000
 10
44.675000
 20
41.539000
 42
0.000000
 97
0
 75
0
 76
1
 98
1
 10
0.000000
 20
0.000000
  0
TEXT
  5
2f7
100
AcDbEntity
  8
PINNUMBERS
100
AcDbText
 10
44.288333
 20
41.609000
 11
44.500000
 21
41.609000
 40
0.635000
 41
0.878740
 50
270.000000
  7
STANDARD
 71
0
 72
2
  1
51
100
AcDbText
 73
0
  0
HATCH
  5
2fd
100
AcDbEntity
  8
ETCH
100
AcDbHatch
 10
0.000000
 20
0.000000
 30
0.000000
210
0.000000
220
0.000000
230
1.000000
  2
SOLID
 70
1
 71
0
 91
1
 92
2
 72
1
 73
1
 93
4
 10
44.675000
 20
49.311000
 42
0.000000
 10
45.125000
 20
49.311000
 42
0.000000
 10
45.125000
 20
47.711000
 42
0.000000
 10
44.675000
 20
47.711000
 42
0.000000
 97
0
 75
0
 76
1
 98
1
 10
0.000000
 20
0.000000
  0
TEXT
  5
2fe
100
AcDbEntity
  8
PINNUMBERS
100
AcDbText
 10
44.388333
 20
47.781000
 11
44.600000
 21
47.781000
 40
0.635000
 41
0.878740
 50
270.000000
  7
STANDARD
 71
0
 72
2
  1
52
100
AcDbText
 73
0
  0
HATCH
  5
304
100
AcDbEntity
  8
ETCH
100
AcDbHatch
 10
0.000000
 20
0.000000
 30
0.000000
210
0.000000
220
0.000000
230
1.000000
  2
SOLID
 70
1
 71
0
 91
1
 92
2
 72
1
 73
1
 93
4
 10
43.875000
 20
43.139000
 42
0.000000
 10
44.325000
 20
43.139000
 42
0.000000
 10
44.325000
 20
41.539000
 42
0.000000
 10
43.875000
 20
41.539000
 42
0.000000
 97
0
 75
0
 76
1
 98
1
 10
0.000000
 20
0.000000
  0
TEXT
  5
305
100
AcDbEntity
  8
PINNUMBERS
100
AcDbText
 10
43.488333
 20
41.609000
 11
43.700000
 21
41.609000
 40
0.635000
 41
0.878740
 50
270.000000
  7
STANDARD
 71
0
 72
2
  1
53
100
AcDbText
 73
0
  0
HATCH
  5
30b
100
AcDbEntity
  8
ETCH
100
AcDbHatch
 10
0.000000
 20
0.000000
 30
0.000000
210
0.000000
220
0.000000
230
1.000000
  2
SOLID
 70
1
 71
0
 91
1
 92
2
 72
1
 73
1
 93
4
 10
43.875000
 20
49.311000
 42
0.000000
 10
44.325000
 20
49.311000
 42
0.000000
 10
44.325000
 20
47.711000
 42
0.000000
 10
43.875000
 20
47.711000
 42
0.000000
 97
0
 75
0
 76
1
 98
1
 10
0.000000
 20
0.000000
  0
TEXT
  5
30c
100
AcDbEntity
  8
PINNUMBERS
100
AcDbText
 10
43.588333
 20
47.781000
 11
43.800000
 21
47.781000
 40
0.635000
 41
0.878740
 50
270.000000
  7
STANDARD
 71
0
 72
2
  1
54
100
AcDbText
 73
0
  0
HATCH
  5
312
100
AcDbEntity
  8
ETCH
100
AcDbHatch
 10
0.000000
 20
0.000000
 30
0.000000
210
0.000000
220
0.000000
230
1.000000
  2
SOLID
 70
1
 71
0
 91
1
 92
2
 72
1
 73
1
 93
4
 10
43.075000
 20
43.139000
 42
0.000000
 10
43.525000
 20
43.139000
 42
0.000000
 10
43.525000
 20
41.539000
 42
0.000000
 10
43.075000
 20
41.539000
 42
0.000000
 97
0
 75
0
 76
1
 98
1
 10
0.000000
 20
0.000000
  0
TEXT
  5
313
100
AcDbEntity
  8
PINNUMBERS
100
AcDbText
 10
42.688333
 20
41.609000
 11
42.900000
 21
41.609000
 40
0.635000
 41
0.878740
 50
270.000000
  7
STANDARD
 71
0
 72
2
  1
55
100
AcDbText
 73
0
  0
HATCH
  5
319
100
AcDbEntity
  8
ETCH
100
AcDbHatch
 10
0.000000
 20
0.000000
 30
0.000000
210
0.000000
220
0.000000
230
1.000000
  2
SOLID
 70
1
 71
0
 91
1
 92
2
 72
1
 73
1
 93
4
 10
43.075000
 20
49.311000
 42
0.000000
 10
43.525000
 20
49.311000
 42
0.000000
 10
43.525000
 20
47.711000
 42
0.000000
 10
43.075000
 20
47.711000
 42
0.000000
 97
0
 75
0
 76
1
 98
1
 10
0.000000
 20
0.000000
  0
TEXT
  5
31a
100
AcDbEntity
  8
PINNUMBERS
100
AcDbText
 10
42.788333
 20
47.781000
 11
43.000000
 21
47.781000
 40
0.635000
 41
0.878740
 50
270.000000
  7
STANDARD
 71
0
 72
2
  1
56
100
AcDbText
 73
0
  0
HATCH
  5
320
100
AcDbEntity
  8
ETCH
100
AcDbHatch
 10
0.000000
 20
0.000000
 30
0.000000
210
0.000000
220
0.000000
230
1.000000
  2
SOLID
 70
1
 71
0
 91
1
 92
2
 72
1
 73
1
 93
4
 10
42.275000
 20
43.139000
 42
0.000000
 10
42.725000
 20
43.139000
 42
0.000000
 10
42.725000
 20
41.539000
 42
0.000000
 10
42.275000
 20
41.539000
 42
0.000000
 97
0
 75
0
 76
1
 98
1
 10
0.000000
 20
0.000000
  0
TEXT
  5
321
100
AcDbEntity
  8
PINNUMBERS
100
AcDbText
 10
41.888333
 20
41.609000
 11
42.100000
 21
41.609000
 40
0.635000
 41
0.878740
 50
270.000000
  7
STANDARD
 71
0
 72
2
  1
57
100
AcDbText
 73
0
  0
HATCH
  5
327
100
AcDbEntity
  8
ETCH
100
AcDbHatch
 10
0.000000
 20
0.000000
 30
0.000000
210
0.000000
220
0.000000
230
1.000000
  2
SOLID
 70
1
 71
0
 91
1
 92
2
 72
1
 73
1
 93
4
 10
42.275000
 20
49.311000
 42
0.000000
 10
42.725000
 20
49.311000
 42
0.000000
 10
42.725000
 20
47.711000
 42
0.000000
 10
42.275000
 20
47.711000
 42
0.000000
 97
0
 75
0
 76
1
 98
1
 10
0.000000
 20
0.000000
  0
TEXT
  5
328
100
AcDbEntity
  8
PINNUMBERS
100
AcDbText
 10
41.988333
 20
47.781000
 11
42.200000
 21
47.781000
 40
0.635000
 41
0.878740
 50
270.000000
  7
STANDARD
 71
0
 72
2
  1
58
100
AcDbText
 73
0
  0
HATCH
  5
32e
100
AcDbEntity
  8
ETCH
100
AcDbHatch
 10
0.000000
 20
0.000000
 30
0.000000
210
0.000000
220
0.000000
230
1.000000
  2
SOLID
 70
1
 71
0
 91
1
 92
2
 72
1
 73
1
 93
4
 10
41.475000
 20
43.139000
 42
0.000000
 10
41.925000
 20
43.139000
 42
0.000000
 10
41.925000
 20
41.539000
 42
0.000000
 10
41.475000
 20
41.539000
 42
0.000000
 97
0
 75
0
 76
1
 98
1
 10
0.000000
 20
0.000000
  0
TEXT
  5
32f
100
AcDbEntity
  8
PINNUMBERS
100
AcDbText
 10
41.088333
 20
41.609000
 11
41.300000
 21
41.609000
 40
0.635000
 41
0.878740
 50
270.000000
  7
STANDARD
 71
0
 72
2
  1
59
100
AcDbText
 73
0
  0
HATCH
  5
335
100
AcDbEntity
  8
ETCH
100
AcDbHatch
 10
0.000000
 20
0.000000
 30
0.000000
210
0.000000
220
0.000000
230
1.000000
  2
SOLID
 70
1
 71
0
 91
1
 92
2
 72
1
 73
1
 93
4
 10
41.475000
 20
49.311000
 42
0.000000
 10
41.925000
 20
49.311000
 42
0.000000
 10
41.925000
 20
47.711000
 42
0.000000
 10
41.475000
 20
47.711000
 42
0.000000
 97
0
 75
0
 76
1
 98
1
 10
0.000000
 20
0.000000
  0
TEXT
  5
336
100
AcDbEntity
  8
PINNUMBERS
100
AcDbText
 10
41.188333
 20
47.781000
 11
41.400000
 21
47.781000
 40
0.635000
 41
0.878740
 50
270.000000
  7
STANDARD
 71
0
 72
2
  1
60
100
AcDbText
 73
0
  0
HATCH
  5
33c
100
AcDbEntity
  8
ETCH
100
AcDbHatch
 10
0.000000
 20
0.000000
 30
0.000000
210
0.000000
220
0.000000
230
1.000000
  2
SOLID
 70
1
 71
0
 91
1
 92
2
 72
1
 73
1
 93
4
 10
40.675000
 20
43.139000
 42
0.000000
 10
41.125000
 20
43.139000
 42
0.000000
 10
41.125000
 20
41.539000
 42
0.000000
 10
40.675000
 20
41.539000
 42
0.000000
 97
0
 75
0
 76
1
 98
1
 10
0.000000
 20
0.000000
  0
TEXT
  5
33d
100
AcDbEntity
  8
PINNUMBERS
100
AcDbText
 10
40.288333
 20
41.609000
 11
40.500000
 21
41.609000
 40
0.635000
 41
0.878740
 50
270.000000
  7
STANDARD
 71
0
 72
2
  1
61
100
AcDbText
 73
0
  0
HATCH
  5
343
100
AcDbEntity
  8
ETCH
100
AcDbHatch
 10
0.000000
 20
0.000000
 30
0.000000
210
0.000000
220
0.000000
230
1.000000
  2
SOLID
 70
1
 71
0
 91
1
 92
2
 72
1
 73
1
 93
4
 10
40.675000
 20
49.311000
 42
0.000000
 10
41.125000
 20
49.311000
 42
0.000000
 10
41.125000
 20
47.711000
 42
0.000000
 10
40.675000
 20
47.711000
 42
0.000000
 97
0
 75
0
 76
1
 98
1
 10
0.000000
 20
0.000000
  0
TEXT
  5
344
100
AcDbEntity
  8
PINNUMBERS
100
AcDbText
 10
40.388333
 20
47.781000
 11
40.600000
 21
47.781000
 40
0.635000
 41
0.878740
 50
270.000000
  7
STANDARD
 71
0
 72
2
  1
62
100
AcDbText
 73
0
  0
HATCH
  5
34a
100
AcDbEntity
  8
ETCH
100
AcDbHatch
 10
0.000000
 20
0.000000
 30
0.000000
210
0.000000
220
0.000000
230
1.000000
  2
SOLID
 70
1
 71
0
 91
1
 92
2
 72
1
 73
1
 93
4
 10
39.875000
 20
43.139000
 42
0.000000
 10
40.325000
 20
43.139000
 42
0.000000
 10
40.325000
 20
41.539000
 42
0.000000
 10
39.875000
 20
41.539000
 42
0.000000
 97
0
 75
0
 76
1
 98
1
 10
0.000000
 20
0.000000
  0
TEXT
  5
34b
100
AcDbEntity
  8
PINNUMBERS
100
AcDbText
 10
39.488333
 20
41.609000
 11
39.700000
 21
41.609000
 40
0.635000
 41
0.878740
 50
270.000000
  7
STANDARD
 71
0
 72
2
  1
63
100
AcDbText
 73
0
  0
HATCH
  5
351
100
AcDbEntity
  8
ETCH
100
AcDbHatch
 10
0.000000
 20
0.000000
 30
0.000000
210
0.000000
220
0.000000
230
1.000000
  2
SOLID
 70
1
 71
0
 91
1
 92
2
 72
1
 73
1
 93
4
 10
39.875000
 20
49.311000
 42
0.000000
 10
40.325000
 20
49.311000
 42
0.000000
 10
40.325000
 20
47.711000
 42
0.000000
 10
39.875000
 20
47.711000
 42
0.000000
 97
0
 75
0
 76
1
 98
1
 10
0.000000
 20
0.000000
  0
TEXT
  5
352
100
AcDbEntity
  8
PINNUMBERS
100
AcDbText
 10
39.588333
 20
47.781000
 11
39.800000
 21
47.781000
 40
0.635000
 41
0.878740
 50
270.000000
  7
STANDARD
 71
0
 72
2
  1
64
100
AcDbText
 73
0
  0
HATCH
  5
358
100
AcDbEntity
  8
ETCH
100
AcDbHatch
 10
0.000000
 20
0.000000
 30
0.000000
210
0.000000
220
0.000000
230
1.000000
  2
SOLID
 70
1
 71
0
 91
1
 92
2
 72
1
 73
1
 93
4
 10
39.075000
 20
43.139000
 42
0.000000
 10
39.525000
 20
43.139000
 42
0.000000
 10
39.525000
 20
41.539000
 42
0.000000
 10
39.075000
 20
41.539000
 42
0.000000
 97
0
 75
0
 76
1
 98
1
 10
0.000000
 20
0.000000
  0
TEXT
  5
359
100
AcDbEntity
  8
PINNUMBERS
100
AcDbText
 10
38.688333
 20
41.609000
 11
38.900000
 21
41.609000
 40
0.635000
 41
0.878740
 50
270.000000
  7
STANDARD
 71
0
 72
2
  1
65
100
AcDbText
 73
0
  0
HATCH
  5
35f
100
AcDbEntity
  8
ETCH
100
AcDbHatch
 10
0.000000
 20
0.000000
 30
0.000000
210
0.000000
220
0.000000
230
1.000000
  2
SOLID
 70
1
 71
0
 91
1
 92
2
 72
1
 73
1
 93
4
 10
39.075000
 20
49.311000
 42
0.000000
 10
39.525000
 20
49.311000
 42
0.000000
 10
39.525000
 20
47.711000
 42
0.000000
 10
39.075000
 20
47.711000
 42
0.000000
 97
0
 75
0
 76
1
 98
1
 10
0.000000
 20
0.000000
  0
TEXT
  5
360
100
AcDbEntity
  8
PINNUMBERS
100
AcDbText
 10
38.788333
 20
47.781000
 11
39.000000
 21
47.781000
 40
0.635000
 41
0.878740
 50
270.000000
  7
STANDARD
 71
0
 72
2
  1
66
100
AcDbText
 73
0
  0
HATCH
  5
366
100
AcDbEntity
  8
ETCH
100
AcDbHatch
 10
0.000000
 20
0.000000
 30
0.000000
210
0.000000
220
0.000000
230
1.000000
  2
SOLID
 70
1
 71
0
 91
1
 92
2
 72
1
 73
1
 93
4
 10
38.275000
 20
43.139000
 42
0.000000
 10
38.725000
 20
43.139000
 42
0.000000
 10
38.725000
 20
41.539000
 42
0.000000
 10
38.275000
 20
41.539000
 42
0.000000
 97
0
 75
0
 76
1
 98
1
 10
0.000000
 20
0.000000
  0
TEXT
  5
367
100
AcDbEntity
  8
PINNUMBERS
100
AcDbText
 10
37.888333
 20
41.609000
 11
38.100000
 21
41.609000
 40
0.635000
 41
0.878740
 50
270.000000
  7
STANDARD
 71
0
 72
2
  1
67
100
AcDbText
 73
0
  0
HATCH
  5
36d
100
AcDbEntity
  8
ETCH
100
AcDbHatch
 10
0.000000
 20
0.000000
 30
0.000000
210
0.000000
220
0.000000
230
1.000000
  2
SOLID
 70
1
 71
0
 91
1
 92
2
 72
1
 73
1
 93
4
 10
38.275000
 20
49.311000
 42
0.000000
 10
38.725000
 20
49.311000
 42
0.000000
 10
38.725000
 20
47.711000
 42
0.000000
 10
38.275000
 20
47.711000
 42
0.000000
 97
0
 75
0
 76
1
 98
1
 10
0.000000
 20
0.000000
  0
TEXT
  5
36e
100
AcDbEntity
  8
PINNUMBERS
100
AcDbText
 10
37.988333
 20
47.781000
 11
38.200000
 21
47.781000
 40
0.635000
 41
0.878740
 50
270.000000
  7
STANDARD
 71
0
 72
2
  1
68
100
AcDbText
 73
0
  0
HATCH
  5
374
100
AcDbEntity
  8
ETCH
100
AcDbHatch
 10
0.000000
 20
0.000000
 30
0.000000
210
0.000000
220
0.000000
230
1.000000
  2
SOLID
 70
1
 71
0
 91
1
 92
2
 72
1
 73
1
 93
4
 10
37.475000
 20
43.139000
 42
0.000000
 10
37.925000
 20
43.139000
 42
0.000000
 10
37.925000
 20
41.539000
 42
0.000000
 10
37.475000
 20
41.539000
 42
0.000000
 97
0
 75
0
 76
1
 98
1
 10
0.000000
 20
0.000000
  0
TEXT
  5
375
100
AcDbEntity
  8
PINNUMBERS
100
AcDbText
 10
37.088333
 20
41.609000
 11
37.300000
 21
41.609000
 40
0.635000
 41
0.878740
 50
270.000000
  7
STANDARD
 71
0
 72
2
  1
69
100
AcDbText
 73
0
  0
HATCH
  5
37b
100
AcDbEntity
  8
ETCH
100
AcDbHatch
 10
0.000000
 20
0.000000
 30
0.000000
210
0.000000
220
0.000000
230
1.000000
  2
SOLID
 70
1
 71
0
 91
1
 92
2
 72
1
 73
1
 93
4
 10
37.475000
 20
49.311000
 42
0.000000
 10
37.925000
 20
49.311000
 42
0.000000
 10
37.925000
 20
47.711000
 42
0.000000
 10
37.475000
 20
47.711000
 42
0.000000
 97
0
 75
0
 76
1
 98
1
 10
0.000000
 20
0.000000
  0
TEXT
  5
37c
100
AcDbEntity
  8
PINNUMBERS
100
AcDbText
 10
37.188333
 20
47.781000
 11
37.400000
 21
47.781000
 40
0.635000
 41
0.878740
 50
270.000000
  7
STANDARD
 71
0
 72
2
  1
70
100
AcDbText
 73
0
  0
HATCH
  5
382
100
AcDbEntity
  8
ETCH
100
AcDbHatch
 10
0.000000
 20
0.000000
 30
0.000000
210
0.000000
220
0.000000
230
1.000000
  2
SOLID
 70
1
 71
0
 91
1
 92
2
 72
1
 73
1
 93
4
 10
36.675000
 20
43.139000
 42
0.000000
 10
37.125000
 20
43.139000
 42
0.000000
 10
37.125000
 20
41.539000
 42
0.000000
 10
36.675000
 20
41.539000
 42
0.000000
 97
0
 75
0
 76
1
 98
1
 10
0.000000
 20
0.000000
  0
TEXT
  5
383
100
AcDbEntity
  8
PINNUMBERS
100
AcDbText
 10
36.288333
 20
41.609000
 11
36.500000
 21
41.609000
 40
0.635000
 41
0.878740
 50
270.000000
  7
STANDARD
 71
0
 72
2
  1
71
100
AcDbText
 73
0
  0
HATCH
  5
389
100
AcDbEntity
  8
ETCH
100
AcDbHatch
 10
0.000000
 20
0.000000
 30
0.000000
210
0.000000
220
0.000000
230
1.000000
  2
SOLID
 70
1
 71
0
 91
1
 92
2
 72
1
 73
1
 93
4
 10
36.675000
 20
49.311000
 42
0.000000
 10
37.125000
 20
49.311000
 42
0.000000
 10
37.125000
 20
47.711000
 42
0.000000
 10
36.675000
 20
47.711000
 42
0.000000
 97
0
 75
0
 76
1
 98
1
 10
0.000000
 20
0.000000
  0
TEXT
  5
38a
100
AcDbEntity
  8
PINNUMBERS
100
AcDbText
 10
36.388333
 20
47.781000
 11
36.600000
 21
47.781000
 40
0.635000
 41
0.878740
 50
270.000000
  7
STANDARD
 71
0
 72
2
  1
72
100
AcDbText
 73
0
  0
HATCH
  5
390
100
AcDbEntity
  8
ETCH
100
AcDbHatch
 10
0.000000
 20
0.000000
 30
0.000000
210
0.000000
220
0.000000
230
1.000000
  2
SOLID
 70
1
 71
0
 91
1
 92
2
 72
1
 73
1
 93
4
 10
35.875000
 20
43.139000
 42
0.000000
 10
36.325000
 20
43.139000
 42
0.000000
 10
36.325000
 20
41.539000
 42
0.000000
 10
35.875000
 20
41.539000
 42
0.000000
 97
0
 75
0
 76
1
 98
1
 10
0.000000
 20
0.000000
  0
TEXT
  5
391
100
AcDbEntity
  8
PINNUMBERS
100
AcDbText
 10
35.488333
 20
41.609000
 11
35.700000
 21
41.609000
 40
0.635000
 41
0.878740
 50
270.000000
  7
STANDARD
 71
0
 72
2
  1
73
100
AcDbText
 73
0
  0
HATCH
  5
397
100
AcDbEntity
  8
ETCH
100
AcDbHatch
 10
0.000000
 20
0.000000
 30
0.000000
210
0.000000
220
0.000000
230
1.000000
  2
SOLID
 70
1
 71
0
 91
1
 92
2
 72
1
 73
1
 93
4
 10
35.875000
 20
49.311000
 42
0.000000
 10
36.325000
 20
49.311000
 42
0.000000
 10
36.325000
 20
47.711000
 42
0.000000
 10
35.875000
 20
47.711000
 42
0.000000
 97
0
 75
0
 76
1
 98
1
 10
0.000000
 20
0.000000
  0
TEXT
  5
398
100
AcDbEntity
  8
PINNUMBERS
100
AcDbText
 10
35.588333
 20
47.781000
 11
35.800000
 21
47.781000
 40
0.635000
 41
0.878740
 50
270.000000
  7
STANDARD
 71
0
 72
2
  1
74
100
AcDbText
 73
0
  0
HATCH
  5
39e
100
AcDbEntity
  8
ETCH
100
AcDbHatch
 10
0.000000
 20
0.000000
 30
0.000000
210
0.000000
220
0.000000
230
1.000000
  2
SOLID
 70
1
 71
0
 91
1
 92
2
 72
1
 73
1
 93
4
 10
35.075000
 20
43.139000
 42
0.000000
 10
35.525000
 20
43.139000
 42
0.000000
 10
35.525000
 20
41.539000
 42
0.000000
 10
35.075000
 20
41.539000
 42
0.000000
 97
0
 75
0
 76
1
 98
1
 10
0.000000
 20
0.000000
  0
TEXT
  5
39f
100
AcDbEntity
  8
PINNUMBERS
100
AcDbText
 10
34.688333
 20
41.609000
 11
34.900000
 21
41.609000
 40
0.635000
 41
0.878740
 50
270.000000
  7
STANDARD
 71
0
 72
2
  1
75
100
AcDbText
 73
0
  0
HATCH
  5
3a5
100
AcDbEntity
  8
ETCH
100
AcDbHatch
 10
0.000000
 20
0.000000
 30
0.000000
210
0.000000
220
0.000000
230
1.000000
  2
SOLID
 70
1
 71
0
 91
1
 92
2
 72
1
 73
1
 93
4
 10
35.075000
 20
49.311000
 42
0.000000
 10
35.525000
 20
49.311000
 42
0.000000
 10
35.525000
 20
47.711000
 42
0.000000
 10
35.075000
 20
47.711000
 42
0.000000
 97
0
 75
0
 76
1
 98
1
 10
0.000000
 20
0.000000
  0
TEXT
  5
3a6
100
AcDbEntity
  8
PINNUMBERS
100
AcDbText
 10
34.788333
 20
47.781000
 11
35.000000
 21
47.781000
 40
0.635000
 41
0.878740
 50
270.000000
  7
STANDARD
 71
0
 72
2
  1
76
100
AcDbText
 73
0
  0
HATCH
  5
3ac
100
AcDbEntity
  8
ETCH
100
AcDbHatch
 10
0.000000
 20
0.000000
 30
0.000000
210
0.000000
220
0.000000
230
1.000000
  2
SOLID
 70
1
 71
0
 91
1
 92
2
 72
1
 73
1
 93
4
 10
34.275000
 20
43.139000
 42
0.000000
 10
34.725000
 20
43.139000
 42
0.000000
 10
34.725000
 20
41.539000
 42
0.000000
 10
34.275000
 20
41.539000
 42
0.000000
 97
0
 75
0
 76
1
 98
1
 10
0.000000
 20
0.000000
  0
TEXT
  5
3ad
100
AcDbEntity
  8
PINNUMBERS
100
AcDbText
 10
33.888333
 20
41.609000
 11
34.100000
 21
41.609000
 40
0.635000
 41
0.878740
 50
270.000000
  7
STANDARD
 71
0
 72
2
  1
77
100
AcDbText
 73
0
  0
HATCH
  5
3b3
100
AcDbEntity
  8
ETCH
100
AcDbHatch
 10
0.000000
 20
0.000000
 30
0.000000
210
0.000000
220
0.000000
230
1.000000
  2
SOLID
 70
1
 71
0
 91
1
 92
2
 72
1
 73
1
 93
4
 10
34.275000
 20
49.311000
 42
0.000000
 10
34.725000
 20
49.311000
 42
0.000000
 10
34.725000
 20
47.711000
 42
0.000000
 10
34.275000
 20
47.711000
 42
0.000000
 97
0
 75
0
 76
1
 98
1
 10
0.000000
 20
0.000000
  0
TEXT
  5
3b4
100
AcDbEntity
  8
PINNUMBERS
100
AcDbText
 10
33.988333
 20
47.781000
 11
34.200000
 21
47.781000
 40
0.635000
 41
0.878740
 50
270.000000
  7
STANDARD
 71
0
 72
2
  1
78
100
AcDbText
 73
0
  0
HATCH
  5
3ba
100
AcDbEntity
  8
ETCH
100
AcDbHatch
 10
0.000000
 20
0.000000
 30
0.000000
210
0.000000
220
0.000000
230
1.000000
  2
SOLID
 70
1
 71
0
 91
1
 92
2
 72
1
 73
1
 93
4
 10
33.475000
 20
43.139000
 42
0.000000
 10
33.925000
 20
43.139000
 42
0.000000
 10
33.925000
 20
41.539000
 42
0.000000
 10
33.475000
 20
41.539000
 42
0.000000
 97
0
 75
0
 76
1
 98
1
 10
0.000000
 20
0.000000
  0
TEXT
  5
3bb
100
AcDbEntity
  8
PINNUMBERS
100
AcDbText
 10
33.088333
 20
41.609000
 11
33.300000
 21
41.609000
 40
0.635000
 41
0.878740
 50
270.000000
  7
STANDARD
 71
0
 72
2
  1
79
100
AcDbText
 73
0
  0
HATCH
  5
3c1
100
AcDbEntity
  8
ETCH
100
AcDbHatch
 10
0.000000
 20
0.000000
 30
0.000000
210
0.000000
220
0.000000
230
1.000000
  2
SOLID
 70
1
 71
0
 91
1
 92
2
 72
1
 73
1
 93
4
 10
33.475000
 20
49.311000
 42
0.000000
 10
33.925000
 20
49.311000
 42
0.000000
 10
33.925000
 20
47.711000
 42
0.000000
 10
33.475000
 20
47.711000
 42
0.000000
 97
0
 75
0
 76
1
 98
1
 10
0.000000
 20
0.000000
  0
TEXT
  5
3c2
100
AcDbEntity
  8
PINNUMBERS
100
AcDbText
 10
33.188333
 20
47.781000
 11
33.400000
 21
47.781000
 40
0.635000
 41
0.878740
 50
270.000000
  7
STANDARD
 71
0
 72
2
  1
80
100
AcDbText
 73
0
  0
HATCH
  5
3c8
100
AcDbEntity
  8
ETCH
100
AcDbHatch
 10
0.000000
 20
0.000000
 30
0.000000
210
0.000000
220
0.000000
230
1.000000
  2
SOLID
 70
1
 71
0
 91
1
 92
2
 72
1
 73
1
 93
4
 10
28.675000
 20
43.139000
 42
0.000000
 10
29.125000
 20
43.139000
 42
0.000000
 10
29.125000
 20
41.539000
 42
0.000000
 10
28.675000
 20
41.539000
 42
0.000000
 97
0
 75
0
 76
1
 98
1
 10
0.000000
 20
0.000000
  0
TEXT
  5
3c9
100
AcDbEntity
  8
PINNUMBERS
100
AcDbText
 10
28.288333
 20
41.609000
 11
28.500000
 21
41.609000
 40
0.635000
 41
0.878740
 50
270.000000
  7
STANDARD
 71
0
 72
2
  1
81
100
AcDbText
 73
0
  0
HATCH
  5
3cf
100
AcDbEntity
  8
ETCH
100
AcDbHatch
 10
0.000000
 20
0.000000
 30
0.000000
210
0.000000
220
0.000000
230
1.000000
  2
SOLID
 70
1
 71
0
 91
1
 92
2
 72
1
 73
1
 93
4
 10
28.675000
 20
49.311000
 42
0.000000
 10
29.125000
 20
49.311000
 42
0.000000
 10
29.125000
 20
47.711000
 42
0.000000
 10
28.675000
 20
47.711000
 42
0.000000
 97
0
 75
0
 76
1
 98
1
 10
0.000000
 20
0.000000
  0
TEXT
  5
3d0
100
AcDbEntity
  8
PINNUMBERS
100
AcDbText
 10
28.388333
 20
47.781000
 11
28.600000
 21
47.781000
 40
0.635000
 41
0.878740
 50
270.000000
  7
STANDARD
 71
0
 72
2
  1
82
100
AcDbText
 73
0
  0
HATCH
  5
3d6
100
AcDbEntity
  8
ETCH
100
AcDbHatch
 10
0.000000
 20
0.000000
 30
0.000000
210
0.000000
220
0.000000
230
1.000000
  2
SOLID
 70
1
 71
0
 91
1
 92
2
 72
1
 73
1
 93
4
 10
27.875000
 20
43.139000
 42
0.000000
 10
28.325000
 20
43.139000
 42
0.000000
 10
28.325000
 20
41.539000
 42
0.000000
 10
27.875000
 20
41.539000
 42
0.000000
 97
0
 75
0
 76
1
 98
1
 10
0.000000
 20
0.000000
  0
TEXT
  5
3d7
100
AcDbEntity
  8
PINNUMBERS
100
AcDbText
 10
27.488333
 20
41.609000
 11
27.700000
 21
41.609000
 40
0.635000
 41
0.878740
 50
270.000000
  7
STANDARD
 71
0
 72
2
  1
83
100
AcDbText
 73
0
  0
HATCH
  5
3dd
100
AcDbEntity
  8
ETCH
100
AcDbHatch
 10
0.000000
 20
0.000000
 30
0.000000
210
0.000000
220
0.000000
230
1.000000
  2
SOLID
 70
1
 71
0
 91
1
 92
2
 72
1
 73
1
 93
4
 10
27.875000
 20
49.311000
 42
0.000000
 10
28.325000
 20
49.311000
 42
0.000000
 10
28.325000
 20
47.711000
 42
0.000000
 10
27.875000
 20
47.711000
 42
0.000000
 97
0
 75
0
 76
1
 98
1
 10
0.000000
 20
0.000000
  0
TEXT
  5
3de
100
AcDbEntity
  8
PINNUMBERS
100
AcDbText
 10
27.588333
 20
47.781000
 11
27.800000
 21
47.781000
 40
0.635000
 41
0.878740
 50
270.000000
  7
STANDARD
 71
0
 72
2
  1
84
100
AcDbText
 73
0
  0
HATCH
  5
3e4
100
AcDbEntity
  8
ETCH
100
AcDbHatch
 10
0.000000
 20
0.000000
 30
0.000000
210
0.000000
220
0.000000
230
1.000000
  2
SOLID
 70
1
 71
0
 91
1
 92
2
 72
1
 73
1
 93
4
 10
27.075000
 20
43.139000
 42
0.000000
 10
27.525000
 20
43.139000
 42
0.000000
 10
27.525000
 20
41.539000
 42
0.000000
 10
27.075000
 20
41.539000
 42
0.000000
 97
0
 75
0
 76
1
 98
1
 10
0.000000
 20
0.000000
  0
TEXT
  5
3e5
100
AcDbEntity
  8
PINNUMBERS
100
AcDbText
 10
26.688333
 20
41.609000
 11
26.900000
 21
41.609000
 40
0.635000
 41
0.878740
 50
270.000000
  7
STANDARD
 71
0
 72
2
  1
85
100
AcDbText
 73
0
  0
HATCH
  5
3eb
100
AcDbEntity
  8
ETCH
100
AcDbHatch
 10
0.000000
 20
0.000000
 30
0.000000
210
0.000000
220
0.000000
230
1.000000
  2
SOLID
 70
1
 71
0
 91
1
 92
2
 72
1
 73
1
 93
4
 10
27.075000
 20
49.311000
 42
0.000000
 10
27.525000
 20
49.311000
 42
0.000000
 10
27.525000
 20
47.711000
 42
0.000000
 10
27.075000
 20
47.711000
 42
0.000000
 97
0
 75
0
 76
1
 98
1
 10
0.000000
 20
0.000000
  0
TEXT
  5
3ec
100
AcDbEntity
  8
PINNUMBERS
100
AcDbText
 10
26.788333
 20
47.781000
 11
27.000000
 21
47.781000
 40
0.635000
 41
0.878740
 50
270.000000
  7
STANDARD
 71
0
 72
2
  1
86
100
AcDbText
 73
0
  0
HATCH
  5
3f2
100
AcDbEntity
  8
ETCH
100
AcDbHatch
 10
0.000000
 20
0.000000
 30
0.000000
210
0.000000
220
0.000000
230
1.000000
  2
SOLID
 70
1
 71
0
 91
1
 92
2
 72
1
 73
1
 93
4
 10
26.275000
 20
43.139000
 42
0.000000
 10
26.725000
 20
43.139000
 42
0.000000
 10
26.725000
 20
41.539000
 42
0.000000
 10
26.275000
 20
41.539000
 42
0.000000
 97
0
 75
0
 76
1
 98
1
 10
0.000000
 20
0.000000
  0
TEXT
  5
3f3
100
AcDbEntity
  8
PINNUMBERS
100
AcDbText
 10
25.888333
 20
41.609000
 11
26.100000
 21
41.609000
 40
0.635000
 41
0.878740
 50
270.000000
  7
STANDARD
 71
0
 72
2
  1
87
100
AcDbText
 73
0
  0
HATCH
  5
3f9
100
AcDbEntity
  8
ETCH
100
AcDbHatch
 10
0.000000
 20
0.000000
 30
0.000000
210
0.000000
220
0.000000
230
1.000000
  2
SOLID
 70
1
 71
0
 91
1
 92
2
 72
1
 73
1
 93
4
 10
26.275000
 20
49.311000
 42
0.000000
 10
26.725000
 20
49.311000
 42
0.000000
 10
26.725000
 20
47.711000
 42
0.000000
 10
26.275000
 20
47.711000
 42
0.000000
 97
0
 75
0
 76
1
 98
1
 10
0.000000
 20
0.000000
  0
TEXT
  5
3fa
100
AcDbEntity
  8
PINNUMBERS
100
AcDbText
 10
25.988333
 20
47.781000
 11
26.200000
 21
47.781000
 40
0.635000
 41
0.878740
 50
270.000000
  7
STANDARD
 71
0
 72
2
  1
88
100
AcDbText
 73
0
  0
HATCH
  5
400
100
AcDbEntity
  8
ETCH
100
AcDbHatch
 10
0.000000
 20
0.000000
 30
0.000000
210
0.000000
220
0.000000
230
1.000000
  2
SOLID
 70
1
 71
0
 91
1
 92
2
 72
1
 73
1
 93
4
 10
25.475000
 20
43.139000
 42
0.000000
 10
25.925000
 20
43.139000
 42
0.000000
 10
25.925000
 20
41.539000
 42
0.000000
 10
25.475000
 20
41.539000
 42
0.000000
 97
0
 75
0
 76
1
 98
1
 10
0.000000
 20
0.000000
  0
TEXT
  5
401
100
AcDbEntity
  8
PINNUMBERS
100
AcDbText
 10
25.088333
 20
41.609000
 11
25.300000
 21
41.609000
 40
0.635000
 41
0.878740
 50
270.000000
  7
STANDARD
 71
0
 72
2
  1
89
100
AcDbText
 73
0
  0
HATCH
  5
407
100
AcDbEntity
  8
ETCH
100
AcDbHatch
 10
0.000000
 20
0.000000
 30
0.000000
210
0.000000
220
0.000000
230
1.000000
  2
SOLID
 70
1
 71
0
 91
1
 92
2
 72
1
 73
1
 93
4
 10
25.475000
 20
49.311000
 42
0.000000
 10
25.925000
 20
49.311000
 42
0.000000
 10
25.925000
 20
47.711000
 42
0.000000
 10
25.475000
 20
47.711000
 42
0.000000
 97
0
 75
0
 76
1
 98
1
 10
0.000000
 20
0.000000
  0
TEXT
  5
408
100
AcDbEntity
  8
PINNUMBERS
100
AcDbText
 10
25.188333
 20
47.781000
 11
25.400000
 21
47.781000
 40
0.635000
 41
0.878740
 50
270.000000
  7
STANDARD
 71
0
 72
2
  1
90
100
AcDbText
 73
0
  0
HATCH
  5
40e
100
AcDbEntity
  8
ETCH
100
AcDbHatch
 10
0.000000
 20
0.000000
 30
0.000000
210
0.000000
220
0.000000
230
1.000000
  2
SOLID
 70
1
 71
0
 91
1
 92
2
 72
1
 73
1
 93
4
 10
24.675000
 20
43.139000
 42
0.000000
 10
25.125000
 20
43.139000
 42
0.000000
 10
25.125000
 20
41.539000
 42
0.000000
 10
24.675000
 20
41.539000
 42
0.000000
 97
0
 75
0
 76
1
 98
1
 10
0.000000
 20
0.000000
  0
TEXT
  5
40f
100
AcDbEntity
  8
PINNUMBERS
100
AcDbText
 10
24.288333
 20
41.609000
 11
24.500000
 21
41.609000
 40
0.635000
 41
0.878740
 50
270.000000
  7
STANDARD
 71
0
 72
2
  1
91
100
AcDbText
 73
0
  0
HATCH
  5
415
100
AcDbEntity
  8
ETCH
100
AcDbHatch
 10
0.000000
 20
0.000000
 30
0.000000
210
0.000000
220
0.000000
230
1.000000
  2
SOLID
 70
1
 71
0
 91
1
 92
2
 72
1
 73
1
 93
4
 10
24.675000
 20
49.311000
 42
0.000000
 10
25.125000
 20
49.311000
 42
0.000000
 10
25.125000
 20
47.711000
 42
0.000000
 10
24.675000
 20
47.711000
 42
0.000000
 97
0
 75
0
 76
1
 98
1
 10
0.000000
 20
0.000000
  0
TEXT
  5
416
100
AcDbEntity
  8
PINNUMBERS
100
AcDbText
 10
24.388333
 20
47.781000
 11
24.600000
 21
47.781000
 40
0.635000
 41
0.878740
 50
270.000000
  7
STANDARD
 71
0
 72
2
  1
92
100
AcDbText
 73
0
  0
HATCH
  5
41c
100
AcDbEntity
  8
ETCH
100
AcDbHatch
 10
0.000000
 20
0.000000
 30
0.000000
210
0.000000
220
0.000000
230
1.000000
  2
SOLID
 70
1
 71
0
 91
1
 92
2
 72
1
 73
1
 93
4
 10
23.875000
 20
43.139000
 42
0.000000
 10
24.325000
 20
43.139000
 42
0.000000
 10
24.325000
 20
41.539000
 42
0.000000
 10
23.875000
 20
41.539000
 42
0.000000
 97
0
 75
0
 76
1
 98
1
 10
0.000000
 20
0.000000
  0
TEXT
  5
41d
100
AcDbEntity
  8
PINNUMBERS
100
AcDbText
 10
23.488333
 20
41.609000
 11
23.700000
 21
41.609000
 40
0.635000
 41
0.878740
 50
270.000000
  7
STANDARD
 71
0
 72
2
  1
93
100
AcDbText
 73
0
  0
HATCH
  5
423
100
AcDbEntity
  8
ETCH
100
AcDbHatch
 10
0.000000
 20
0.000000
 30
0.000000
210
0.000000
220
0.000000
230
1.000000
  2
SOLID
 70
1
 71
0
 91
1
 92
2
 72
1
 73
1
 93
4
 10
23.875000
 20
49.311000
 42
0.000000
 10
24.325000
 20
49.311000
 42
0.000000
 10
24.325000
 20
47.711000
 42
0.000000
 10
23.875000
 20
47.711000
 42
0.000000
 97
0
 75
0
 76
1
 98
1
 10
0.000000
 20
0.000000
  0
TEXT
  5
424
100
AcDbEntity
  8
PINNUMBERS
100
AcDbText
 10
23.588333
 20
47.781000
 11
23.800000
 21
47.781000
 40
0.635000
 41
0.878740
 50
270.000000
  7
STANDARD
 71
0
 72
2
  1
94
100
AcDbText
 73
0
  0
HATCH
  5
42a
100
AcDbEntity
  8
ETCH
100
AcDbHatch
 10
0.000000
 20
0.000000
 30
0.000000
210
0.000000
220
0.000000
230
1.000000
  2
SOLID
 70
1
 71
0
 91
1
 92
2
 72
1
 73
1
 93
4
 10
23.075000
 20
43.139000
 42
0.000000
 10
23.525000
 20
43.139000
 42
0.000000
 10
23.525000
 20
41.539000
 42
0.000000
 10
23.075000
 20
41.539000
 42
0.000000
 97
0
 75
0
 76
1
 98
1
 10
0.000000
 20
0.000000
  0
TEXT
  5
42b
100
AcDbEntity
  8
PINNUMBERS
100
AcDbText
 10
22.688333
 20
41.609000
 11
22.900000
 21
41.609000
 40
0.635000
 41
0.878740
 50
270.000000
  7
STANDARD
 71
0
 72
2
  1
95
100
AcDbText
 73
0
  0
HATCH
  5
431
100
AcDbEntity
  8
ETCH
100
AcDbHatch
 10
0.000000
 20
0.000000
 30
0.000000
210
0.000000
220
0.000000
230
1.000000
  2
SOLID
 70
1
 71
0
 91
1
 92
2
 72
1
 73
1
 93
4
 10
23.075000
 20
49.311000
 42
0.000000
 10
23.525000
 20
49.311000
 42
0.000000
 10
23.525000
 20
47.711000
 42
0.000000
 10
23.075000
 20
47.711000
 42
0.000000
 97
0
 75
0
 76
1
 98
1
 10
0.000000
 20
0.000000
  0
TEXT
  5
432
100
AcDbEntity
  8
PINNUMBERS
100
AcDbText
 10
22.788333
 20
47.781000
 11
23.000000
 21
47.781000
 40
0.635000
 41
0.878740
 50
270.000000
  7
STANDARD
 71
0
 72
2
  1
96
100
AcDbText
 73
0
  0
HATCH
  5
438
100
AcDbEntity
  8
ETCH
100
AcDbHatch
 10
0.000000
 20
0.000000
 30
0.000000
210
0.000000
220
0.000000
230
1.000000
  2
SOLID
 70
1
 71
0
 91
1
 92
2
 72
1
 73
1
 93
4
 10
22.275000
 20
43.139000
 42
0.000000
 10
22.725000
 20
43.139000
 42
0.000000
 10
22.725000
 20
41.539000
 42
0.000000
 10
22.275000
 20
41.539000
 42
0.000000
 97
0
 75
0
 76
1
 98
1
 10
0.000000
 20
0.000000
  0
TEXT
  5
439
100
AcDbEntity
  8
PINNUMBERS
100
AcDbText
 10
21.888333
 20
41.609000
 11
22.100000
 21
41.609000
 40
0.635000
 41
0.878740
 50
270.000000
  7
STANDARD
 71
0
 72
2
  1
97
100
AcDbText
 73
0
  0
HATCH
  5
43f
100
AcDbEntity
  8
ETCH
100
AcDbHatch
 10
0.000000
 20
0.000000
 30
0.000000
210
0.000000
220
0.000000
230
1.000000
  2
SOLID
 70
1
 71
0
 91
1
 92
2
 72
1
 73
1
 93
4
 10
22.275000
 20
49.311000
 42
0.000000
 10
22.725000
 20
49.311000
 42
0.000000
 10
22.725000
 20
47.711000
 42
0.000000
 10
22.275000
 20
47.711000
 42
0.000000
 97
0
 75
0
 76
1
 98
1
 10
0.000000
 20
0.000000
  0
TEXT
  5
440
100
AcDbEntity
  8
PINNUMBERS
100
AcDbText
 10
21.988333
 20
47.781000
 11
22.200000
 21
47.781000
 40
0.635000
 41
0.878740
 50
270.000000
  7
STANDARD
 71
0
 72
2
  1
98
100
AcDbText
 73
0
  0
HATCH
  5
446
100
AcDbEntity
  8
ETCH
100
AcDbHatch
 10
0.000000
 20
0.000000
 30
0.000000
210
0.000000
220
0.000000
230
1.000000
  2
SOLID
 70
1
 71
0
 91
1
 92
2
 72
1
 73
1
 93
4
 10
21.475000
 20
43.139000
 42
0.000000
 10
21.925000
 20
43.139000
 42
0.000000
 10
21.925000
 20
41.539000
 42
0.000000
 10
21.475000
 20
41.539000
 42
0.000000
 97
0
 75
0
 76
1
 98
1
 10
0.000000
 20
0.000000
  0
TEXT
  5
447
100
AcDbEntity
  8
PINNUMBERS
100
AcDbText
 10
21.088333
 20
41.609000
 11
21.300000
 21
41.609000
 40
0.635000
 41
0.878740
 50
270.000000
  7
STANDARD
 71
0
 72
2
  1
99
100
AcDbText
 73
0
  0
HATCH
  5
44d
100
AcDbEntity
  8
ETCH
100
AcDbHatch
 10
0.000000
 20
0.000000
 30
0.000000
210
0.000000
220
0.000000
230
1.000000
  2
SOLID
 70
1
 71
0
 91
1
 92
2
 72
1
 73
1
 93
4
 10
21.475000
 20
49.311000
 42
0.000000
 10
21.925000
 20
49.311000
 42
0.000000
 10
21.925000
 20
47.711000
 42
0.000000
 10
21.475000
 20
47.711000
 42
0.000000
 97
0
 75
0
 76
1
 98
1
 10
0.000000
 20
0.000000
  0
TEXT
  5
44e
100
AcDbEntity
  8
PINNUMBERS
100
AcDbText
 10
21.188333
 20
47.781000
 11
21.400000
 21
47.781000
 40
0.635000
 41
0.878740
 50
270.000000
  7
STANDARD
 71
0
 72
2
  1
100
100
AcDbText
 73
0
  0
HATCH
  5
454
100
AcDbEntity
  8
ETCH
100
AcDbHatch
 10
0.000000
 20
0.000000
 30
0.000000
210
0.000000
220
0.000000
230
1.000000
  2
SOLID
 70
1
 71
0
 91
1
 92
2
 72
1
 73
1
 93
4
 10
20.675000
 20
43.139000
 42
0.000000
 10
21.125000
 20
43.139000
 42
0.000000
 10
21.125000
 20
41.539000
 42
0.000000
 10
20.675000
 20
41.539000
 42
0.000000
 97
0
 75
0
 76
1
 98
1
 10
0.000000
 20
0.000000
  0
TEXT
  5
455
100
AcDbEntity
  8
PINNUMBERS
100
AcDbText
 10
20.288333
 20
41.609000
 11
20.500000
 21
41.609000
 40
0.635000
 41
0.878740
 50
270.000000
  7
STANDARD
 71
0
 72
2
  1
101
100
AcDbText
 73
0
  0
HATCH
  5
45b
100
AcDbEntity
  8
ETCH
100
AcDbHatch
 10
0.000000
 20
0.000000
 30
0.000000
210
0.000000
220
0.000000
230
1.000000
  2
SOLID
 70
1
 71
0
 91
1
 92
2
 72
1
 73
1
 93
4
 10
20.675000
 20
49.311000
 42
0.000000
 10
21.125000
 20
49.311000
 42
0.000000
 10
21.125000
 20
47.711000
 42
0.000000
 10
20.675000
 20
47.711000
 42
0.000000
 97
0
 75
0
 76
1
 98
1
 10
0.000000
 20
0.000000
  0
TEXT
  5
45c
100
AcDbEntity
  8
PINNUMBERS
100
AcDbText
 10
20.388333
 20
47.781000
 11
20.600000
 21
47.781000
 40
0.635000
 41
0.878740
 50
270.000000
  7
STANDARD
 71
0
 72
2
  1
102
100
AcDbText
 73
0
  0
HATCH
  5
462
100
AcDbEntity
  8
ETCH
100
AcDbHatch
 10
0.000000
 20
0.000000
 30
0.000000
210
0.000000
220
0.000000
230
1.000000
  2
SOLID
 70
1
 71
0
 91
1
 92
2
 72
1
 73
1
 93
4
 10
19.875000
 20
43.139000
 42
0.000000
 10
20.325000
 20
43.139000
 42
0.000000
 10
20.325000
 20
41.539000
 42
0.000000
 10
19.875000
 20
41.539000
 42
0.000000
 97
0
 75
0
 76
1
 98
1
 10
0.000000
 20
0.000000
  0
TEXT
  5
463
100
AcDbEntity
  8
PINNUMBERS
100
AcDbText
 10
19.488333
 20
41.609000
 11
19.700000
 21
41.609000
 40
0.635000
 41
0.878740
 50
270.000000
  7
STANDARD
 71
0
 72
2
  1
103
100
AcDbText
 73
0
  0
HATCH
  5
469
100
AcDbEntity
  8
ETCH
100
AcDbHatch
 10
0.000000
 20
0.000000
 30
0.000000
210
0.000000
220
0.000000
230
1.000000
  2
SOLID
 70
1
 71
0
 91
1
 92
2
 72
1
 73
1
 93
4
 10
19.875000
 20
49.311000
 42
0.000000
 10
20.325000
 20
49.311000
 42
0.000000
 10
20.325000
 20
47.711000
 42
0.000000
 10
19.875000
 20
47.711000
 42
0.000000
 97
0
 75
0
 76
1
 98
1
 10
0.000000
 20
0.000000
  0
TEXT
  5
46a
100
AcDbEntity
  8
PINNUMBERS
100
AcDbText
 10
19.588333
 20
47.781000
 11
19.800000
 21
47.781000
 40
0.635000
 41
0.878740
 50
270.000000
  7
STANDARD
 71
0
 72
2
  1
104
100
AcDbText
 73
0
  0
HATCH
  5
470
100
AcDbEntity
  8
ETCH
100
AcDbHatch
 10
0.000000
 20
0.000000
 30
0.000000
210
0.000000
220
0.000000
230
1.000000
  2
SOLID
 70
1
 71
0
 91
1
 92
2
 72
1
 73
1
 93
4
 10
19.075000
 20
43.139000
 42
0.000000
 10
19.525000
 20
43.139000
 42
0.000000
 10
19.525000
 20
41.539000
 42
0.000000
 10
19.075000
 20
41.539000
 42
0.000000
 97
0
 75
0
 76
1
 98
1
 10
0.000000
 20
0.000000
  0
TEXT
  5
471
100
AcDbEntity
  8
PINNUMBERS
100
AcDbText
 10
18.688333
 20
41.609000
 11
18.900000
 21
41.609000
 40
0.635000
 41
0.878740
 50
270.000000
  7
STANDARD
 71
0
 72
2
  1
105
100
AcDbText
 73
0
  0
HATCH
  5
477
100
AcDbEntity
  8
ETCH
100
AcDbHatch
 10
0.000000
 20
0.000000
 30
0.000000
210
0.000000
220
0.000000
230
1.000000
  2
SOLID
 70
1
 71
0
 91
1
 92
2
 72
1
 73
1
 93
4
 10
19.075000
 20
49.311000
 42
0.000000
 10
19.525000
 20
49.311000
 42
0.000000
 10
19.525000
 20
47.711000
 42
0.000000
 10
19.075000
 20
47.711000
 42
0.000000
 97
0
 75
0
 76
1
 98
1
 10
0.000000
 20
0.000000
  0
TEXT
  5
478
100
AcDbEntity
  8
PINNUMBERS
100
AcDbText
 10
18.788333
 20
47.781000
 11
19.000000
 21
47.781000
 40
0.635000
 41
0.878740
 50
270.000000
  7
STANDARD
 71
0
 72
2
  1
106
100
AcDbText
 73
0
  0
HATCH
  5
47e
100
AcDbEntity
  8
ETCH
100
AcDbHatch
 10
0.000000
 20
0.000000
 30
0.000000
210
0.000000
220
0.000000
230
1.000000
  2
SOLID
 70
1
 71
0
 91
1
 92
2
 72
1
 73
1
 93
4
 10
18.275000
 20
43.139000
 42
0.000000
 10
18.725000
 20
43.139000
 42
0.000000
 10
18.725000
 20
41.539000
 42
0.000000
 10
18.275000
 20
41.539000
 42
0.000000
 97
0
 75
0
 76
1
 98
1
 10
0.000000
 20
0.000000
  0
TEXT
  5
47f
100
AcDbEntity
  8
PINNUMBERS
100
AcDbText
 10
17.888333
 20
41.609000
 11
18.100000
 21
41.609000
 40
0.635000
 41
0.878740
 50
270.000000
  7
STANDARD
 71
0
 72
2
  1
107
100
AcDbText
 73
0
  0
HATCH
  5
485
100
AcDbEntity
  8
ETCH
100
AcDbHatch
 10
0.000000
 20
0.000000
 30
0.000000
210
0.000000
220
0.000000
230
1.000000
  2
SOLID
 70
1
 71
0
 91
1
 92
2
 72
1
 73
1
 93
4
 10
18.275000
 20
49.311000
 42
0.000000
 10
18.725000
 20
49.311000
 42
0.000000
 10
18.725000
 20
47.711000
 42
0.000000
 10
18.275000
 20
47.711000
 42
0.000000
 97
0
 75
0
 76
1
 98
1
 10
0.000000
 20
0.000000
  0
TEXT
  5
486
100
AcDbEntity
  8
PINNUMBERS
100
AcDbText
 10
17.988333
 20
47.781000
 11
18.200000
 21
47.781000
 40
0.635000
 41
0.878740
 50
270.000000
  7
STANDARD
 71
0
 72
2
  1
108
100
AcDbText
 73
0
  0
HATCH
  5
48c
100
AcDbEntity
  8
ETCH
100
AcDbHatch
 10
0.000000
 20
0.000000
 30
0.000000
210
0.000000
220
0.000000
230
1.000000
  2
SOLID
 70
1
 71
0
 91
1
 92
2
 72
1
 73
1
 93
4
 10
17.475000
 20
43.139000
 42
0.000000
 10
17.925000
 20
43.139000
 42
0.000000
 10
17.925000
 20
41.539000
 42
0.000000
 10
17.475000
 20
41.539000
 42
0.000000
 97
0
 75
0
 76
1
 98
1
 10
0.000000
 20
0.000000
  0
TEXT
  5
48d
100
AcDbEntity
  8
PINNUMBERS
100
AcDbText
 10
17.088333
 20
41.609000
 11
17.300000
 21
41.609000
 40
0.635000
 41
0.878740
 50
270.000000
  7
STANDARD
 71
0
 72
2
  1
109
100
AcDbText
 73
0
  0
HATCH
  5
493
100
AcDbEntity
  8
ETCH
100
AcDbHatch
 10
0.000000
 20
0.000000
 30
0.000000
210
0.000000
220
0.000000
230
1.000000
  2
SOLID
 70
1
 71
0
 91
1
 92
2
 72
1
 73
1
 93
4
 10
17.475000
 20
49.311000
 42
0.000000
 10
17.925000
 20
49.311000
 42
0.000000
 10
17.925000
 20
47.711000
 42
0.000000
 10
17.475000
 20
47.711000
 42
0.000000
 97
0
 75
0
 76
1
 98
1
 10
0.000000
 20
0.000000
  0
TEXT
  5
494
100
AcDbEntity
  8
PINNUMBERS
100
AcDbText
 10
17.188333
 20
47.781000
 11
17.400000
 21
47.781000
 40
0.635000
 41
0.878740
 50
270.000000
  7
STANDARD
 71
0
 72
2
  1
110
100
AcDbText
 73
0
  0
HATCH
  5
49a
100
AcDbEntity
  8
ETCH
100
AcDbHatch
 10
0.000000
 20
0.000000
 30
0.000000
210
0.000000
220
0.000000
230
1.000000
  2
SOLID
 70
1
 71
0
 91
1
 92
2
 72
1
 73
1
 93
4
 10
16.675000
 20
43.139000
 42
0.000000
 10
17.125000
 20
43.139000
 42
0.000000
 10
17.125000
 20
41.539000
 42
0.000000
 10
16.675000
 20
41.539000
 42
0.000000
 97
0
 75
0
 76
1
 98
1
 10
0.000000
 20
0.000000
  0
TEXT
  5
49b
100
AcDbEntity
  8
PINNUMBERS
100
AcDbText
 10
16.288333
 20
41.609000
 11
16.500000
 21
41.609000
 40
0.635000
 41
0.878740
 50
270.000000
  7
STANDARD
 71
0
 72
2
  1
111
100
AcDbText
 73
0
  0
HATCH
  5
4a1
100
AcDbEntity
  8
ETCH
100
AcDbHatch
 10
0.000000
 20
0.000000
 30
0.000000
210
0.000000
220
0.000000
230
1.000000
  2
SOLID
 70
1
 71
0
 91
1
 92
2
 72
1
 73
1
 93
4
 10
16.675000
 20
49.311000
 42
0.000000
 10
17.125000
 20
49.311000
 42
0.000000
 10
17.125000
 20
47.711000
 42
0.000000
 10
16.675000
 20
47.711000
 42
0.000000
 97
0
 75
0
 76
1
 98
1
 10
0.000000
 20
0.000000
  0
TEXT
  5
4a2
100
AcDbEntity
  8
PINNUMBERS
100
AcDbText
 10
16.388333
 20
47.781000
 11
16.600000
 21
47.781000
 40
0.635000
 41
0.878740
 50
270.000000
  7
STANDARD
 71
0
 72
2
  1
112
100
AcDbText
 73
0
  0
HATCH
  5
4a8
100
AcDbEntity
  8
ETCH
100
AcDbHatch
 10
0.000000
 20
0.000000
 30
0.000000
210
0.000000
220
0.000000
230
1.000000
  2
SOLID
 70
1
 71
0
 91
1
 92
2
 72
1
 73
1
 93
4
 10
15.875000
 20
43.139000
 42
0.000000
 10
16.325000
 20
43.139000
 42
0.000000
 10
16.325000
 20
41.539000
 42
0.000000
 10
15.875000
 20
41.539000
 42
0.000000
 97
0
 75
0
 76
1
 98
1
 10
0.000000
 20
0.000000
  0
TEXT
  5
4a9
100
AcDbEntity
  8
PINNUMBERS
100
AcDbText
 10
15.488333
 20
41.609000
 11
15.700000
 21
41.609000
 40
0.635000
 41
0.878740
 50
270.000000
  7
STANDARD
 71
0
 72
2
  1
113
100
AcDbText
 73
0
  0
HATCH
  5
4af
100
AcDbEntity
  8
ETCH
100
AcDbHatch
 10
0.000000
 20
0.000000
 30
0.000000
210
0.000000
220
0.000000
230
1.000000
  2
SOLID
 70
1
 71
0
 91
1
 92
2
 72
1
 73
1
 93
4
 10
15.875000
 20
49.311000
 42
0.000000
 10
16.325000
 20
49.311000
 42
0.000000
 10
16.325000
 20
47.711000
 42
0.000000
 10
15.875000
 20
47.711000
 42
0.000000
 97
0
 75
0
 76
1
 98
1
 10
0.000000
 20
0.000000
  0
TEXT
  5
4b0
100
AcDbEntity
  8
PINNUMBERS
100
AcDbText
 10
15.588333
 20
47.781000
 11
15.800000
 21
47.781000
 40
0.635000
 41
0.878740
 50
270.000000
  7
STANDARD
 71
0
 72
2
  1
114
100
AcDbText
 73
0
  0
HATCH
  5
4b6
100
AcDbEntity
  8
ETCH
100
AcDbHatch
 10
0.000000
 20
0.000000
 30
0.000000
210
0.000000
220
0.000000
230
1.000000
  2
SOLID
 70
1
 71
0
 91
1
 92
2
 72
1
 73
1
 93
4
 10
15.075000
 20
43.139000
 42
0.000000
 10
15.525000
 20
43.139000
 42
0.000000
 10
15.525000
 20
41.539000
 42
0.000000
 10
15.075000
 20
41.539000
 42
0.000000
 97
0
 75
0
 76
1
 98
1
 10
0.000000
 20
0.000000
  0
TEXT
  5
4b7
100
AcDbEntity
  8
PINNUMBERS
100
AcDbText
 10
14.688333
 20
41.609000
 11
14.900000
 21
41.609000
 40
0.635000
 41
0.878740
 50
270.000000
  7
STANDARD
 71
0
 72
2
  1
115
100
AcDbText
 73
0
  0
HATCH
  5
4bd
100
AcDbEntity
  8
ETCH
100
AcDbHatch
 10
0.000000
 20
0.000000
 30
0.000000
210
0.000000
220
0.000000
230
1.000000
  2
SOLID
 70
1
 71
0
 91
1
 92
2
 72
1
 73
1
 93
4
 10
15.075000
 20
49.311000
 42
0.000000
 10
15.525000
 20
49.311000
 42
0.000000
 10
15.525000
 20
47.711000
 42
0.000000
 10
15.075000
 20
47.711000
 42
0.000000
 97
0
 75
0
 76
1
 98
1
 10
0.000000
 20
0.000000
  0
TEXT
  5
4be
100
AcDbEntity
  8
PINNUMBERS
100
AcDbText
 10
14.788333
 20
47.781000
 11
15.000000
 21
47.781000
 40
0.635000
 41
0.878740
 50
270.000000
  7
STANDARD
 71
0
 72
2
  1
116
100
AcDbText
 73
0
  0
HATCH
  5
4c4
100
AcDbEntity
  8
ETCH
100
AcDbHatch
 10
0.000000
 20
0.000000
 30
0.000000
210
0.000000
220
0.000000
230
1.000000
  2
SOLID
 70
1
 71
0
 91
1
 92
2
 72
1
 73
1
 93
4
 10
14.275000
 20
43.139000
 42
0.000000
 10
14.725000
 20
43.139000
 42
0.000000
 10
14.725000
 20
41.539000
 42
0.000000
 10
14.275000
 20
41.539000
 42
0.000000
 97
0
 75
0
 76
1
 98
1
 10
0.000000
 20
0.000000
  0
TEXT
  5
4c5
100
AcDbEntity
  8
PINNUMBERS
100
AcDbText
 10
13.888333
 20
41.609000
 11
14.100000
 21
41.609000
 40
0.635000
 41
0.878740
 50
270.000000
  7
STANDARD
 71
0
 72
2
  1
117
100
AcDbText
 73
0
  0
HATCH
  5
4cb
100
AcDbEntity
  8
ETCH
100
AcDbHatch
 10
0.000000
 20
0.000000
 30
0.000000
210
0.000000
220
0.000000
230
1.000000
  2
SOLID
 70
1
 71
0
 91
1
 92
2
 72
1
 73
1
 93
4
 10
14.275000
 20
49.311000
 42
0.000000
 10
14.725000
 20
49.311000
 42
0.000000
 10
14.725000
 20
47.711000
 42
0.000000
 10
14.275000
 20
47.711000
 42
0.000000
 97
0
 75
0
 76
1
 98
1
 10
0.000000
 20
0.000000
  0
TEXT
  5
4cc
100
AcDbEntity
  8
PINNUMBERS
100
AcDbText
 10
13.988333
 20
47.781000
 11
14.200000
 21
47.781000
 40
0.635000
 41
0.878740
 50
270.000000
  7
STANDARD
 71
0
 72
2
  1
118
100
AcDbText
 73
0
  0
HATCH
  5
4d2
100
AcDbEntity
  8
ETCH
100
AcDbHatch
 10
0.000000
 20
0.000000
 30
0.000000
210
0.000000
220
0.000000
230
1.000000
  2
SOLID
 70
1
 71
0
 91
1
 92
2
 72
1
 73
1
 93
4
 10
13.475000
 20
43.139000
 42
0.000000
 10
13.925000
 20
43.139000
 42
0.000000
 10
13.925000
 20
41.539000
 42
0.000000
 10
13.475000
 20
41.539000
 42
0.000000
 97
0
 75
0
 76
1
 98
1
 10
0.000000
 20
0.000000
  0
TEXT
  5
4d3
100
AcDbEntity
  8
PINNUMBERS
100
AcDbText
 10
13.088333
 20
41.609000
 11
13.300000
 21
41.609000
 40
0.635000
 41
0.878740
 50
270.000000
  7
STANDARD
 71
0
 72
2
  1
119
100
AcDbText
 73
0
  0
HATCH
  5
4d9
100
AcDbEntity
  8
ETCH
100
AcDbHatch
 10
0.000000
 20
0.000000
 30
0.000000
210
0.000000
220
0.000000
230
1.000000
  2
SOLID
 70
1
 71
0
 91
1
 92
2
 72
1
 73
1
 93
4
 10
13.475000
 20
49.311000
 42
0.000000
 10
13.925000
 20
49.311000
 42
0.000000
 10
13.925000
 20
47.711000
 42
0.000000
 10
13.475000
 20
47.711000
 42
0.000000
 97
0
 75
0
 76
1
 98
1
 10
0.000000
 20
0.000000
  0
TEXT
  5
4da
100
AcDbEntity
  8
PINNUMBERS
100
AcDbText
 10
13.188333
 20
47.781000
 11
13.400000
 21
47.781000
 40
0.635000
 41
0.878740
 50
270.000000
  7
STANDARD
 71
0
 72
2
  1
120
100
AcDbText
 73
0
  0
HATCH
  5
4e0
100
AcDbEntity
  8
ETCH
100
AcDbHatch
 10
0.000000
 20
0.000000
 30
0.000000
210
0.000000
220
0.000000
230
1.000000
  2
SOLID
 70
1
 71
0
 91
1
 92
2
 72
1
 73
1
 93
4
 10
68.475000
 20
45.750000
 42
0.000000
 10
71.015000
 20
45.750000
 42
0.000000
 10
71.015000
 20
45.100000
 42
0.000000
 10
68.475000
 20
45.100000
 42
0.000000
 97
0
 75
0
 76
1
 98
1
 10
0.000000
 20
0.000000
  0
TEXT
  5
4e1
100
AcDbEntity
  8
PINNUMBERS
100
AcDbText
 10
69.903333
 20
45.175000
 11
70.115000
 21
45.175000
 40
0.635000
 41
0.878740
 50
0.000000
  7
STANDARD
 71
0
 72
2
  1
G1
100
AcDbText
 73
0
  0
HATCH
  5
4e7
100
AcDbEntity
  8
ETCH
100
AcDbHatch
 10
0.000000
 20
0.000000
 30
0.000000
210
0.000000
220
0.000000
230
1.000000
  2
SOLID
 70
1
 71
0
 91
1
 92
2
 72
1
 73
1
 93
4
 10
51.585000
 20
45.750000
 42
0.000000
 10
54.125000
 20
45.750000
 42
0.000000
 10
54.125000
 20
45.100000
 42
0.000000
 10
51.585000
 20
45.100000
 42
0.000000
 97
0
 75
0
 76
1
 98
1
 10
0.000000
 20
0.000000
  0
TEXT
  5
4e8
100
AcDbEntity
  8
PINNUMBERS
100
AcDbText
 10
53.013333
 20
45.175000
 11
53.225000
 21
45.175000
 40
0.635000
 41
0.878740
 50
0.000000
  7
STANDARD
 71
0
 72
2
  1
G4
100
AcDbText
 73
0
  0
HATCH
  5
4ee
100
AcDbEntity
  8
ETCH
100
AcDbHatch
 10
0.000000
 20
0.000000
 30
0.000000
210
0.000000
220
0.000000
230
1.000000
  2
SOLID
 70
1
 71
0
 91
1
 92
2
 72
1
 73
1
 93
4
 10
48.475000
 20
45.750000
 42
0.000000
 10
51.015000
 20
45.750000
 42
0.000000
 10
51.015000
 20
45.100000
 42
0.000000
 10
48.475000
 20
45.100000
 42
0.000000
 97
0
 75
0
 76
1
 98
1
 10
0.000000
 20
0.000000
  0
TEXT
  5
4ef
100
AcDbEntity
  8
PINNUMBERS
100
AcDbText
 10
49.903333
 20
45.175000
 11
50.115000
 21
45.175000
 40
0.635000
 41
0.878740
 50
0.000000
  7
STANDARD
 71
0
 72
2
  1
G5
100
AcDbText
 73
0
  0
HATCH
  5
4f5
100
AcDbEntity
  8
ETCH
100
AcDbHatch
 10
0.000000
 20
0.000000
 30
0.000000
210
0.000000
220
0.000000
230
1.000000
  2
SOLID
 70
1
 71
0
 91
1
 92
2
 72
1
 73
1
 93
4
 10
31.585000
 20
45.750000
 42
0.000000
 10
34.125000
 20
45.750000
 42
0.000000
 10
34.125000
 20
45.100000
 42
0.000000
 10
31.585000
 20
45.100000
 42
0.000000
 97
0
 75
0
 76
1
 98
1
 10
0.000000
 20
0.000000
  0
TEXT
  5
4f6
100
AcDbEntity
  8
PINNUMBERS
100
AcDbText
 10
33.113333
 20
45.175000
 11
33.325000
 21
45.175000
 40
0.635000
 41
0.878740
 50
0.000000
  7
STANDARD
 71
0
 72
2
  1
G8
100
AcDbText
 73
0
  0
HATCH
  5
4fc
100
AcDbEntity
  8
ETCH
100
AcDbHatch
 10
0.000000
 20
0.000000
 30
0.000000
210
0.000000
220
0.000000
230
1.000000
  2
SOLID
 70
1
 71
0
 91
1
 92
2
 72
1
 73
1
 93
4
 10
28.475000
 20
45.750000
 42
0.000000
 10
31.015000
 20
45.750000
 42
0.000000
 10
31.015000
 20
45.100000
 42
0.000000
 10
28.475000
 20
45.100000
 42
0.000000
 97
0
 75
0
 76
1
 98
1
 10
0.000000
 20
0.000000
  0
TEXT
  5
4fd
100
AcDbEntity
  8
PINNUMBERS
100
AcDbText
 10
30.003333
 20
45.175000
 11
30.215000
 21
45.175000
 40
0.635000
 41
0.878740
 50
0.000000
  7
STANDARD
 71
0
 72
2
  1
G9
100
AcDbText
 73
0
  0
HATCH
  5
503
100
AcDbEntity
  8
ETCH
100
AcDbHatch
 10
0.000000
 20
0.000000
 30
0.000000
210
0.000000
220
0.000000
230
1.000000
  2
SOLID
 70
1
 71
0
 91
1
 92
2
 72
1
 73
1
 93
4
 10
11.585000
 20
45.750000
 42
0.000000
 10
14.125000
 20
45.750000
 42
0.000000
 10
14.125000
 20
45.100000
 42
0.000000
 10
11.585000
 20
45.100000
 42
0.000000
 97
0
 75
0
 76
1
 98
1
 10
0.000000
 20
0.000000
  0
TEXT
  5
504
100
AcDbEntity
  8
PINNUMBERS
100
AcDbText
 10
13.113333
 20
45.175000
 11
13.325000
 21
45.175000
 40
0.635000
 41
0.878740
 50
0.000000
  7
STANDARD
 71
0
 72
2
  1
G12
100
AcDbText
 73
0
  0
HATCH
  5
50a
100
AcDbEntity
  8
ETCH
100
AcDbHatch
 10
0.000000
 20
0.000000
 30
0.000000
210
0.000000
220
0.000000
230
1.000000
  2
SOLID
 70
1
 71
0
 91
1
 92
2
 72
1
 73
1
 93
4
 10
62.125000
 20
45.750000
 42
0.000000
 10
66.825000
 20
45.750000
 42
0.000000
 10
66.825000
 20
45.100000
 42
0.000000
 10
62.125000
 20
45.100000
 42
0.000000
 97
0
 75
0
 76
1
 98
1
 10
0.000000
 20
0.000000
  0
TEXT
  5
50b
100
AcDbEntity
  8
PINNUMBERS
100
AcDbText
 10
64.633333
 20
45.175000
 11
64.845000
 21
45.175000
 40
0.635000
 41
0.878740
 50
0.000000
  7
STANDARD
 71
0
 72
2
  1
G2
100
AcDbText
 73
0
  0
HATCH
  5
511
100
AcDbEntity
  8
ETCH
100
AcDbHatch
 10
0.000000
 20
0.000000
 30
0.000000
210
0.000000
220
0.000000
230
1.000000
  2
SOLID
 70
1
 71
0
 91
1
 92
2
 72
1
 73
1
 93
4
 10
55.775000
 20
45.750000
 42
0.000000
 10
60.475000
 20
45.750000
 42
0.000000
 10
60.475000
 20
45.100000
 42
0.000000
 10
55.775000
 20
45.100000
 42
0.000000
 97
0
 75
0
 76
1
 98
1
 10
0.000000
 20
0.000000
  0
TEXT
  5
512
100
AcDbEntity
  8
PINNUMBERS
100
AcDbText
 10
58.283333
 20
45.175000
 11
58.495000
 21
45.175000
 40
0.635000
 41
0.878740
 50
0.000000
  7
STANDARD
 71
0
 72
2
  1
G3
100
AcDbText
 73
0
  0
HATCH
  5
518
100
AcDbEntity
  8
ETCH
100
AcDbHatch
 10
0.000000
 20
0.000000
 30
0.000000
210
0.000000
220
0.000000
230
1.000000
  2
SOLID
 70
1
 71
0
 91
1
 92
2
 72
1
 73
1
 93
4
 10
42.125000
 20
45.750000
 42
0.000000
 10
46.825000
 20
45.750000
 42
0.000000
 10
46.825000
 20
45.100000
 42
0.000000
 10
42.125000
 20
45.100000
 42
0.000000
 97
0
 75
0
 76
1
 98
1
 10
0.000000
 20
0.000000
  0
TEXT
  5
519
100
AcDbEntity
  8
PINNUMBERS
100
AcDbText
 10
44.633333
 20
45.175000
 11
44.845000
 21
45.175000
 40
0.635000
 41
0.878740
 50
0.000000
  7
STANDARD
 71
0
 72
2
  1
G6
100
AcDbText
 73
0
  0
HATCH
  5
51f
100
AcDbEntity
  8
ETCH
100
AcDbHatch
 10
0.000000
 20
0.000000
 30
0.000000
210
0.000000
220
0.000000
230
1.000000
  2
SOLID
 70
1
 71
0
 91
1
 92
2
 72
1
 73
1
 93
4
 10
35.775000
 20
45.750000
 42
0.000000
 10
40.475000
 20
45.750000
 42
0.000000
 10
40.475000
 20
45.100000
 42
0.000000
 10
35.775000
 20
45.100000
 42
0.000000
 97
0
 75
0
 76
1
 98
1
 10
0.000000
 20
0.000000
  0
TEXT
  5
520
100
AcDbEntity
  8
PINNUMBERS
100
AcDbText
 10
37.888333
 20
45.200000
 11
38.100000
 21
45.200000
 40
0.635000
 41
0.878740
 50
0.000000
  7
STANDARD
 71
0
 72
2
  1
G7
100
AcDbText
 73
0
  0
HATCH
  5
526
100
AcDbEntity
  8
ETCH
100
AcDbHatch
 10
0.000000
 20
0.000000
 30
0.000000
210
0.000000
220
0.000000
230
1.000000
  2
SOLID
 70
1
 71
0
 91
1
 92
2
 72
1
 73
1
 93
4
 10
22.125000
 20
45.750000
 42
0.000000
 10
26.825000
 20
45.750000
 42
0.000000
 10
26.825000
 20
45.100000
 42
0.000000
 10
22.125000
 20
45.100000
 42
0.000000
 97
0
 75
0
 76
1
 98
1
 10
0.000000
 20
0.000000
  0
TEXT
  5
527
100
AcDbEntity
  8
PINNUMBERS
100
AcDbText
 10
24.733333
 20
45.175000
 11
24.945000
 21
45.175000
 40
0.635000
 41
0.878740
 50
0.000000
  7
STANDARD
 71
0
 72
2
  1
G10
100
AcDbText
 73
0
  0
HATCH
  5
52d
100
AcDbEntity
  8
ETCH
100
AcDbHatch
 10
0.000000
 20
0.000000
 30
0.000000
210
0.000000
220
0.000000
230
1.000000
  2
SOLID
 70
1
 71
0
 91
1
 92
2
 72
1
 73
1
 93
4
 10
15.775000
 20
45.750000
 42
0.000000
 10
20.475000
 20
45.750000
 42
0.000000
 10
20.475000
 20
45.100000
 42
0.000000
 10
15.775000
 20
45.100000
 42
0.000000
 97
0
 75
0
 76
1
 98
1
 10
0.000000
 20
0.000000
  0
TEXT
  5
52e
100
AcDbEntity
  8
PINNUMBERS
100
AcDbText
 10
18.383333
 20
45.175000
 11
18.595000
 21
45.175000
 40
0.635000
 41
0.878740
 50
0.000000
  7
STANDARD
 71
0
 72
2
  1
G11
100
AcDbText
 73
0
  0
HATCH
  5
532
100
AcDbEntity
  8
ETCH
100
AcDbHatch
 10
0.000000
 20
0.000000
 30
0.000000
210
0.000000
220
0.000000
230
1.000000
  2
SOLID
 70
1
 71
0
 91
1
 92
2
 72
1
 73
1
 93
2
 10
71.290000
 20
43.389000
 42
1.000000
 10
69.790000
 20
43.389000
 42
1.000000
 97
0
 75
0
 76
1
 98
1
 10
0.000000
 20
0.000000
  0
HATCH
  5
536
100
AcDbEntity
  8
ETCH
100
AcDbHatch
 10
0.000000
 20
0.000000
 30
0.000000
210
0.000000
220
0.000000
230
1.000000
  2
SOLID
 70
1
 71
0
 91
1
 92
2
 72
1
 73
1
 93
2
 10
12.810000
 20
43.389000
 42
1.000000
 10
11.310000
 20
43.389000
 42
1.000000
 97
0
 75
0
 76
1
 98
1
 10
0.000000
 20
0.000000
  0
POLYLINE
  5
537
100
AcDbEntity
  8
ASSEMBLY
100
AcDb2dPolyline
 66
1
 70
1
 40
0.000000
 41
0.000000
 39
0.000000
  0
VERTEX
  5
539
100
AcDbEntity
  8
ASSEMBLY
100
AcDbVertex
100
AcDb2dVertex
 10
71.300000
 20
42.425000
 40
0.100000
 41
0.100000
 42
0.000000
  0
VERTEX
  5
53a
100
AcDbEntity
  8
ASSEMBLY
100
AcDbVertex
100
AcDb2dVertex
 10
11.300000
 20
42.425000
 40
0.100000
 41
0.100000
 42
0.000000
  0
VERTEX
  5
53b
100
AcDbEntity
  8
ASSEMBLY
100
AcDbVertex
100
AcDb2dVertex
 10
11.300000
 20
46.925000
 40
0.100000
 41
0.100000
 42
0.000000
  0
VERTEX
  5
53c
100
AcDbEntity
  8
ASSEMBLY
100
AcDbVertex
100
AcDb2dVertex
 10
12.800000
 20
48.425000
 40
0.100000
 41
0.100000
 42
0.000000
  0
VERTEX
  5
53d
100
AcDbEntity
  8
ASSEMBLY
100
AcDbVertex
100
AcDb2dVertex
 10
69.800000
 20
48.425000
 40
0.100000
 41
0.100000
 42
0.000000
  0
VERTEX
  5
53e
100
AcDbEntity
  8
ASSEMBLY
100
AcDbVertex
100
AcDb2dVertex
 10
71.300000
 20
46.925000
 40
0.100000
 41
0.100000
 42
0.000000
  0
SEQEND
  5
538
100
AcDbEntity
  0
POLYLINE
  5
53f
100
AcDbEntity
  8
ASSEMBLY
100
AcDb2dPolyline
 66
1
 70
1
 40
0.000000
 41
0.000000
 39
0.000000
  0
VERTEX
  5
541
100
AcDbEntity
  8
ASSEMBLY
100
AcDbVertex
100
AcDb2dVertex
 10
70.300000
 20
43.425000
 40
0.100000
 41
0.100000
 42
0.000000
  0
VERTEX
  5
542
100
AcDbEntity
  8
ASSEMBLY
100
AcDbVertex
100
AcDb2dVertex
 10
12.300000
 20
43.425000
 40
0.100000
 41
0.100000
 42
0.000000
  0
VERTEX
  5
543
100
AcDbEntity
  8
ASSEMBLY
100
AcDbVertex
100
AcDb2dVertex
 10
12.300000
 20
46.425000
 40
0.100000
 41
0.100000
 42
0.000000
  0
VERTEX
  5
544
100
AcDbEntity
  8
ASSEMBLY
100
AcDbVertex
100
AcDb2dVertex
 10
13.300000
 20
47.425000
 40
0.100000
 41
0.100000
 42
0.000000
  0
VERTEX
  5
545
100
AcDbEntity
  8
ASSEMBLY
100
AcDbVertex
100
AcDb2dVertex
 10
69.300000
 20
47.425000
 40
0.100000
 41
0.100000
 42
0.000000
  0
VERTEX
  5
546
100
AcDbEntity
  8
ASSEMBLY
100
AcDbVertex
100
AcDb2dVertex
 10
70.300000
 20
46.425000
 40
0.100000
 41
0.100000
 42
0.000000
  0
SEQEND
  5
540
100
AcDbEntity
  0
HATCH
  5
54a
100
AcDbEntity
  8
ASSEMBLY
100
AcDbHatch
 10
0.000000
 20
0.000000
 30
0.000000
210
0.000000
220
0.000000
230
1.000000
  2
SOLID
 70
1
 71
0
 91
1
 92
2
 72
1
 73
1
 93
2
 10
70.300000
 20
41.425000
 42
1.000000
 10
69.700000
 20
41.425000
 42
1.000000
 97
0
 75
0
 76
1
 98
1
 10
0.000000
 20
0.000000
  0
TEXT
  5
54b
100
AcDbEntity
  8
ASSEMBLY
100
AcDbText
 10
7.800000
 20
42.600000
 11
0.000000
 21
0.000000
 40
1.905000
 41
1.000000
 50
0.000000
  7
STANDARD
 71
0
 72
0
  1
J2
100
AcDbText
 73
0
  0
HATCH
  5
551
100
AcDbEntity
  8
ETCH
100
AcDbHatch
 10
0.000000
 20
0.000000
 30
0.000000
210
0.000000
220
0.000000
230
1.000000
  2
SOLID
 70
1
 71
0
 91
1
 92
2
 72
1
 73
1
 93
4
 10
68.675000
 20
4.889000
 42
0.000000
 10
69.125000
 20
4.889000
 42
0.000000
 10
69.125000
 20
3.289000
 42
0.000000
 10
68.675000
 20
3.289000
 42
0.000000
 97
0
 75
0
 76
1
 98
1
 10
0.000000
 20
0.000000
  0
TEXT
  5
552
100
AcDbEntity
  8
PINNUMBERS
100
AcDbText
 10
68.288333
 20
3.359000
 11
68.500000
 21
3.359000
 40
0.635000
 41
0.878740
 50
270.000000
  7
STANDARD
 71
0
 72
2
  1
1
100
AcDbText
 73
0
  0
HATCH
  5
558
100
AcDbEntity
  8
ETCH
100
AcDbHatch
 10
0.000000
 20
0.000000
 30
0.000000
210
0.000000
220
0.000000
230
1.000000
  2
SOLID
 70
1
 71
0
 91
1
 92
2
 72
1
 73
1
 93
4
 10
68.675000
 20
11.061000
 42
0.000000
 10
69.125000
 20
11.061000
 42
0.000000
 10
69.125000
 20
9.461000
 42
0.000000
 10
68.675000
 20
9.461000
 42
0.000000
 97
0
 75
0
 76
1
 98
1
 10
0.000000
 20
0.000000
  0
TEXT
  5
559
100
AcDbEntity
  8
PINNUMBERS
100
AcDbText
 10
68.388333
 20
9.531000
 11
68.600000
 21
9.531000
 40
0.635000
 41
0.878740
 50
270.000000
  7
STANDARD
 71
0
 72
2
  1
2
100
AcDbText
 73
0
  0
HATCH
  5
55f
100
AcDbEntity
  8
ETCH
100
AcDbHatch
 10
0.000000
 20
0.000000
 30
0.000000
210
0.000000
220
0.000000
230
1.000000
  2
SOLID
 70
1
 71
0
 91
1
 92
2
 72
1
 73
1
 93
4
 10
67.875000
 20
4.889000
 42
0.000000
 10
68.325000
 20
4.889000
 42
0.000000
 10
68.325000
 20
3.289000
 42
0.000000
 10
67.875000
 20
3.289000
 42
0.000000
 97
0
 75
0
 76
1
 98
1
 10
0.000000
 20
0.000000
  0
TEXT
  5
560
100
AcDbEntity
  8
PINNUMBERS
100
AcDbText
 10
67.488333
 20
3.359000
 11
67.700000
 21
3.359000
 40
0.635000
 41
0.878740
 50
270.000000
  7
STANDARD
 71
0
 72
2
  1
3
100
AcDbText
 73
0
  0
HATCH
  5
566
100
AcDbEntity
  8
ETCH
100
AcDbHatch
 10
0.000000
 20
0.000000
 30
0.000000
210
0.000000
220
0.000000
230
1.000000
  2
SOLID
 70
1
 71
0
 91
1
 92
2
 72
1
 73
1
 93
4
 10
67.875000
 20
11.061000
 42
0.000000
 10
68.325000
 20
11.061000
 42
0.000000
 10
68.325000
 20
9.461000
 42
0.000000
 10
67.875000
 20
9.461000
 42
0.000000
 97
0
 75
0
 76
1
 98
1
 10
0.000000
 20
0.000000
  0
TEXT
  5
567
100
AcDbEntity
  8
PINNUMBERS
100
AcDbText
 10
67.588333
 20
9.531000
 11
67.800000
 21
9.531000
 40
0.635000
 41
0.878740
 50
270.000000
  7
STANDARD
 71
0
 72
2
  1
4
100
AcDbText
 73
0
  0
HATCH
  5
56d
100
AcDbEntity
  8
ETCH
100
AcDbHatch
 10
0.000000
 20
0.000000
 30
0.000000
210
0.000000
220
0.000000
230
1.000000
  2
SOLID
 70
1
 71
0
 91
1
 92
2
 72
1
 73
1
 93
4
 10
67.075000
 20
4.889000
 42
0.000000
 10
67.525000
 20
4.889000
 42
0.000000
 10
67.525000
 20
3.289000
 42
0.000000
 10
67.075000
 20
3.289000
 42
0.000000
 97
0
 75
0
 76
1
 98
1
 10
0.000000
 20
0.000000
  0
TEXT
  5
56e
100
AcDbEntity
  8
PINNUMBERS
100
AcDbText
 10
66.688333
 20
3.359000
 11
66.900000
 21
3.359000
 40
0.635000
 41
0.878740
 50
270.000000
  7
STANDARD
 71
0
 72
2
  1
5
100
AcDbText
 73
0
  0
HATCH
  5
574
100
AcDbEntity
  8
ETCH
100
AcDbHatch
 10
0.000000
 20
0.000000
 30
0.000000
210
0.000000
220
0.000000
230
1.000000
  2
SOLID
 70
1
 71
0
 91
1
 92
2
 72
1
 73
1
 93
4
 10
67.075000
 20
11.061000
 42
0.000000
 10
67.525000
 20
11.061000
 42
0.000000
 10
67.525000
 20
9.461000
 42
0.000000
 10
67.075000
 20
9.461000
 42
0.000000
 97
0
 75
0
 76
1
 98
1
 10
0.000000
 20
0.000000
  0
TEXT
  5
575
100
AcDbEntity
  8
PINNUMBERS
100
AcDbText
 10
66.788333
 20
9.531000
 11
67.000000
 21
9.531000
 40
0.635000
 41
0.878740
 50
270.000000
  7
STANDARD
 71
0
 72
2
  1
6
100
AcDbText
 73
0
  0
HATCH
  5
57b
100
AcDbEntity
  8
ETCH
100
AcDbHatch
 10
0.000000
 20
0.000000
 30
0.000000
210
0.000000
220
0.000000
230
1.000000
  2
SOLID
 70
1
 71
0
 91
1
 92
2
 72
1
 73
1
 93
4
 10
66.275000
 20
4.889000
 42
0.000000
 10
66.725000
 20
4.889000
 42
0.000000
 10
66.725000
 20
3.289000
 42
0.000000
 10
66.275000
 20
3.289000
 42
0.000000
 97
0
 75
0
 76
1
 98
1
 10
0.000000
 20
0.000000
  0
TEXT
  5
57c
100
AcDbEntity
  8
PINNUMBERS
100
AcDbText
 10
65.888333
 20
3.359000
 11
66.100000
 21
3.359000
 40
0.635000
 41
0.878740
 50
270.000000
  7
STANDARD
 71
0
 72
2
  1
7
100
AcDbText
 73
0
  0
HATCH
  5
582
100
AcDbEntity
  8
ETCH
100
AcDbHatch
 10
0.000000
 20
0.000000
 30
0.000000
210
0.000000
220
0.000000
230
1.000000
  2
SOLID
 70
1
 71
0
 91
1
 92
2
 72
1
 73
1
 93
4
 10
66.275000
 20
11.061000
 42
0.000000
 10
66.725000
 20
11.061000
 42
0.000000
 10
66.725000
 20
9.461000
 42
0.000000
 10
66.275000
 20
9.461000
 42
0.000000
 97
0
 75
0
 76
1
 98
1
 10
0.000000
 20
0.000000
  0
TEXT
  5
583
100
AcDbEntity
  8
PINNUMBERS
100
AcDbText
 10
65.988333
 20
9.531000
 11
66.200000
 21
9.531000
 40
0.635000
 41
0.878740
 50
270.000000
  7
STANDARD
 71
0
 72
2
  1
8
100
AcDbText
 73
0
  0
HATCH
  5
589
100
AcDbEntity
  8
ETCH
100
AcDbHatch
 10
0.000000
 20
0.000000
 30
0.000000
210
0.000000
220
0.000000
230
1.000000
  2
SOLID
 70
1
 71
0
 91
1
 92
2
 72
1
 73
1
 93
4
 10
65.475000
 20
4.889000
 42
0.000000
 10
65.925000
 20
4.889000
 42
0.000000
 10
65.925000
 20
3.289000
 42
0.000000
 10
65.475000
 20
3.289000
 42
0.000000
 97
0
 75
0
 76
1
 98
1
 10
0.000000
 20
0.000000
  0
TEXT
  5
58a
100
AcDbEntity
  8
PINNUMBERS
100
AcDbText
 10
65.088333
 20
3.359000
 11
65.300000
 21
3.359000
 40
0.635000
 41
0.878740
 50
270.000000
  7
STANDARD
 71
0
 72
2
  1
9
100
AcDbText
 73
0
  0
HATCH
  5
590
100
AcDbEntity
  8
ETCH
100
AcDbHatch
 10
0.000000
 20
0.000000
 30
0.000000
210
0.000000
220
0.000000
230
1.000000
  2
SOLID
 70
1
 71
0
 91
1
 92
2
 72
1
 73
1
 93
4
 10
65.475000
 20
11.061000
 42
0.000000
 10
65.925000
 20
11.061000
 42
0.000000
 10
65.925000
 20
9.461000
 42
0.000000
 10
65.475000
 20
9.461000
 42
0.000000
 97
0
 75
0
 76
1
 98
1
 10
0.000000
 20
0.000000
  0
TEXT
  5
591
100
AcDbEntity
  8
PINNUMBERS
100
AcDbText
 10
65.188333
 20
9.531000
 11
65.400000
 21
9.531000
 40
0.635000
 41
0.878740
 50
270.000000
  7
STANDARD
 71
0
 72
2
  1
10
100
AcDbText
 73
0
  0
HATCH
  5
597
100
AcDbEntity
  8
ETCH
100
AcDbHatch
 10
0.000000
 20
0.000000
 30
0.000000
210
0.000000
220
0.000000
230
1.000000
  2
SOLID
 70
1
 71
0
 91
1
 92
2
 72
1
 73
1
 93
4
 10
64.675000
 20
4.889000
 42
0.000000
 10
65.125000
 20
4.889000
 42
0.000000
 10
65.125000
 20
3.289000
 42
0.000000
 10
64.675000
 20
3.289000
 42
0.000000
 97
0
 75
0
 76
1
 98
1
 10
0.000000
 20
0.000000
  0
TEXT
  5
598
100
AcDbEntity
  8
PINNUMBERS
100
AcDbText
 10
64.288333
 20
3.359000
 11
64.500000
 21
3.359000
 40
0.635000
 41
0.878740
 50
270.000000
  7
STANDARD
 71
0
 72
2
  1
11
100
AcDbText
 73
0
  0
HATCH
  5
59e
100
AcDbEntity
  8
ETCH
100
AcDbHatch
 10
0.000000
 20
0.000000
 30
0.000000
210
0.000000
220
0.000000
230
1.000000
  2
SOLID
 70
1
 71
0
 91
1
 92
2
 72
1
 73
1
 93
4
 10
64.675000
 20
11.061000
 42
0.000000
 10
65.125000
 20
11.061000
 42
0.000000
 10
65.125000
 20
9.461000
 42
0.000000
 10
64.675000
 20
9.461000
 42
0.000000
 97
0
 75
0
 76
1
 98
1
 10
0.000000
 20
0.000000
  0
TEXT
  5
59f
100
AcDbEntity
  8
PINNUMBERS
100
AcDbText
 10
64.388333
 20
9.531000
 11
64.600000
 21
9.531000
 40
0.635000
 41
0.878740
 50
270.000000
  7
STANDARD
 71
0
 72
2
  1
12
100
AcDbText
 73
0
  0
HATCH
  5
5a5
100
AcDbEntity
  8
ETCH
100
AcDbHatch
 10
0.000000
 20
0.000000
 30
0.000000
210
0.000000
220
0.000000
230
1.000000
  2
SOLID
 70
1
 71
0
 91
1
 92
2
 72
1
 73
1
 93
4
 10
63.875000
 20
4.889000
 42
0.000000
 10
64.325000
 20
4.889000
 42
0.000000
 10
64.325000
 20
3.289000
 42
0.000000
 10
63.875000
 20
3.289000
 42
0.000000
 97
0
 75
0
 76
1
 98
1
 10
0.000000
 20
0.000000
  0
TEXT
  5
5a6
100
AcDbEntity
  8
PINNUMBERS
100
AcDbText
 10
63.488333
 20
3.359000
 11
63.700000
 21
3.359000
 40
0.635000
 41
0.878740
 50
270.000000
  7
STANDARD
 71
0
 72
2
  1
13
100
AcDbText
 73
0
  0
HATCH
  5
5ac
100
AcDbEntity
  8
ETCH
100
AcDbHatch
 10
0.000000
 20
0.000000
 30
0.000000
210
0.000000
220
0.000000
230
1.000000
  2
SOLID
 70
1
 71
0
 91
1
 92
2
 72
1
 73
1
 93
4
 10
63.875000
 20
11.061000
 42
0.000000
 10
64.325000
 20
11.061000
 42
0.000000
 10
64.325000
 20
9.461000
 42
0.000000
 10
63.875000
 20
9.461000
 42
0.000000
 97
0
 75
0
 76
1
 98
1
 10
0.000000
 20
0.000000
  0
TEXT
  5
5ad
100
AcDbEntity
  8
PINNUMBERS
100
AcDbText
 10
63.588333
 20
9.531000
 11
63.800000
 21
9.531000
 40
0.635000
 41
0.878740
 50
270.000000
  7
STANDARD
 71
0
 72
2
  1
14
100
AcDbText
 73
0
  0
HATCH
  5
5b3
100
AcDbEntity
  8
ETCH
100
AcDbHatch
 10
0.000000
 20
0.000000
 30
0.000000
210
0.000000
220
0.000000
230
1.000000
  2
SOLID
 70
1
 71
0
 91
1
 92
2
 72
1
 73
1
 93
4
 10
63.075000
 20
4.889000
 42
0.000000
 10
63.525000
 20
4.889000
 42
0.000000
 10
63.525000
 20
3.289000
 42
0.000000
 10
63.075000
 20
3.289000
 42
0.000000
 97
0
 75
0
 76
1
 98
1
 10
0.000000
 20
0.000000
  0
TEXT
  5
5b4
100
AcDbEntity
  8
PINNUMBERS
100
AcDbText
 10
62.688333
 20
3.359000
 11
62.900000
 21
3.359000
 40
0.635000
 41
0.878740
 50
270.000000
  7
STANDARD
 71
0
 72
2
  1
15
100
AcDbText
 73
0
  0
HATCH
  5
5ba
100
AcDbEntity
  8
ETCH
100
AcDbHatch
 10
0.000000
 20
0.000000
 30
0.000000
210
0.000000
220
0.000000
230
1.000000
  2
SOLID
 70
1
 71
0
 91
1
 92
2
 72
1
 73
1
 93
4
 10
63.075000
 20
11.061000
 42
0.000000
 10
63.525000
 20
11.061000
 42
0.000000
 10
63.525000
 20
9.461000
 42
0.000000
 10
63.075000
 20
9.461000
 42
0.000000
 97
0
 75
0
 76
1
 98
1
 10
0.000000
 20
0.000000
  0
TEXT
  5
5bb
100
AcDbEntity
  8
PINNUMBERS
100
AcDbText
 10
62.788333
 20
9.531000
 11
63.000000
 21
9.531000
 40
0.635000
 41
0.878740
 50
270.000000
  7
STANDARD
 71
0
 72
2
  1
16
100
AcDbText
 73
0
  0
HATCH
  5
5c1
100
AcDbEntity
  8
ETCH
100
AcDbHatch
 10
0.000000
 20
0.000000
 30
0.000000
210
0.000000
220
0.000000
230
1.000000
  2
SOLID
 70
1
 71
0
 91
1
 92
2
 72
1
 73
1
 93
4
 10
62.275000
 20
4.889000
 42
0.000000
 10
62.725000
 20
4.889000
 42
0.000000
 10
62.725000
 20
3.289000
 42
0.000000
 10
62.275000
 20
3.289000
 42
0.000000
 97
0
 75
0
 76
1
 98
1
 10
0.000000
 20
0.000000
  0
TEXT
  5
5c2
100
AcDbEntity
  8
PINNUMBERS
100
AcDbText
 10
61.888333
 20
3.359000
 11
62.100000
 21
3.359000
 40
0.635000
 41
0.878740
 50
270.000000
  7
STANDARD
 71
0
 72
2
  1
17
100
AcDbText
 73
0
  0
HATCH
  5
5c8
100
AcDbEntity
  8
ETCH
100
AcDbHatch
 10
0.000000
 20
0.000000
 30
0.000000
210
0.000000
220
0.000000
230
1.000000
  2
SOLID
 70
1
 71
0
 91
1
 92
2
 72
1
 73
1
 93
4
 10
62.275000
 20
11.061000
 42
0.000000
 10
62.725000
 20
11.061000
 42
0.000000
 10
62.725000
 20
9.461000
 42
0.000000
 10
62.275000
 20
9.461000
 42
0.000000
 97
0
 75
0
 76
1
 98
1
 10
0.000000
 20
0.000000
  0
TEXT
  5
5c9
100
AcDbEntity
  8
PINNUMBERS
100
AcDbText
 10
61.988333
 20
9.531000
 11
62.200000
 21
9.531000
 40
0.635000
 41
0.878740
 50
270.000000
  7
STANDARD
 71
0
 72
2
  1
18
100
AcDbText
 73
0
  0
HATCH
  5
5cf
100
AcDbEntity
  8
ETCH
100
AcDbHatch
 10
0.000000
 20
0.000000
 30
0.000000
210
0.000000
220
0.000000
230
1.000000
  2
SOLID
 70
1
 71
0
 91
1
 92
2
 72
1
 73
1
 93
4
 10
61.475000
 20
4.889000
 42
0.000000
 10
61.925000
 20
4.889000
 42
0.000000
 10
61.925000
 20
3.289000
 42
0.000000
 10
61.475000
 20
3.289000
 42
0.000000
 97
0
 75
0
 76
1
 98
1
 10
0.000000
 20
0.000000
  0
TEXT
  5
5d0
100
AcDbEntity
  8
PINNUMBERS
100
AcDbText
 10
61.088333
 20
3.359000
 11
61.300000
 21
3.359000
 40
0.635000
 41
0.878740
 50
270.000000
  7
STANDARD
 71
0
 72
2
  1
19
100
AcDbText
 73
0
  0
HATCH
  5
5d6
100
AcDbEntity
  8
ETCH
100
AcDbHatch
 10
0.000000
 20
0.000000
 30
0.000000
210
0.000000
220
0.000000
230
1.000000
  2
SOLID
 70
1
 71
0
 91
1
 92
2
 72
1
 73
1
 93
4
 10
61.475000
 20
11.061000
 42
0.000000
 10
61.925000
 20
11.061000
 42
0.000000
 10
61.925000
 20
9.461000
 42
0.000000
 10
61.475000
 20
9.461000
 42
0.000000
 97
0
 75
0
 76
1
 98
1
 10
0.000000
 20
0.000000
  0
TEXT
  5
5d7
100
AcDbEntity
  8
PINNUMBERS
100
AcDbText
 10
61.188333
 20
9.531000
 11
61.400000
 21
9.531000
 40
0.635000
 41
0.878740
 50
270.000000
  7
STANDARD
 71
0
 72
2
  1
20
100
AcDbText
 73
0
  0
HATCH
  5
5dd
100
AcDbEntity
  8
ETCH
100
AcDbHatch
 10
0.000000
 20
0.000000
 30
0.000000
210
0.000000
220
0.000000
230
1.000000
  2
SOLID
 70
1
 71
0
 91
1
 92
2
 72
1
 73
1
 93
4
 10
60.675000
 20
4.889000
 42
0.000000
 10
61.125000
 20
4.889000
 42
0.000000
 10
61.125000
 20
3.289000
 42
0.000000
 10
60.675000
 20
3.289000
 42
0.000000
 97
0
 75
0
 76
1
 98
1
 10
0.000000
 20
0.000000
  0
TEXT
  5
5de
100
AcDbEntity
  8
PINNUMBERS
100
AcDbText
 10
60.288333
 20
3.359000
 11
60.500000
 21
3.359000
 40
0.635000
 41
0.878740
 50
270.000000
  7
STANDARD
 71
0
 72
2
  1
21
100
AcDbText
 73
0
  0
HATCH
  5
5e4
100
AcDbEntity
  8
ETCH
100
AcDbHatch
 10
0.000000
 20
0.000000
 30
0.000000
210
0.000000
220
0.000000
230
1.000000
  2
SOLID
 70
1
 71
0
 91
1
 92
2
 72
1
 73
1
 93
4
 10
60.675000
 20
11.061000
 42
0.000000
 10
61.125000
 20
11.061000
 42
0.000000
 10
61.125000
 20
9.461000
 42
0.000000
 10
60.675000
 20
9.461000
 42
0.000000
 97
0
 75
0
 76
1
 98
1
 10
0.000000
 20
0.000000
  0
TEXT
  5
5e5
100
AcDbEntity
  8
PINNUMBERS
100
AcDbText
 10
60.388333
 20
9.531000
 11
60.600000
 21
9.531000
 40
0.635000
 41
0.878740
 50
270.000000
  7
STANDARD
 71
0
 72
2
  1
22
100
AcDbText
 73
0
  0
HATCH
  5
5eb
100
AcDbEntity
  8
ETCH
100
AcDbHatch
 10
0.000000
 20
0.000000
 30
0.000000
210
0.000000
220
0.000000
230
1.000000
  2
SOLID
 70
1
 71
0
 91
1
 92
2
 72
1
 73
1
 93
4
 10
59.875000
 20
4.889000
 42
0.000000
 10
60.325000
 20
4.889000
 42
0.000000
 10
60.325000
 20
3.289000
 42
0.000000
 10
59.875000
 20
3.289000
 42
0.000000
 97
0
 75
0
 76
1
 98
1
 10
0.000000
 20
0.000000
  0
TEXT
  5
5ec
100
AcDbEntity
  8
PINNUMBERS
100
AcDbText
 10
59.488333
 20
3.359000
 11
59.700000
 21
3.359000
 40
0.635000
 41
0.878740
 50
270.000000
  7
STANDARD
 71
0
 72
2
  1
23
100
AcDbText
 73
0
  0
HATCH
  5
5f2
100
AcDbEntity
  8
ETCH
100
AcDbHatch
 10
0.000000
 20
0.000000
 30
0.000000
210
0.000000
220
0.000000
230
1.000000
  2
SOLID
 70
1
 71
0
 91
1
 92
2
 72
1
 73
1
 93
4
 10
59.875000
 20
11.061000
 42
0.000000
 10
60.325000
 20
11.061000
 42
0.000000
 10
60.325000
 20
9.461000
 42
0.000000
 10
59.875000
 20
9.461000
 42
0.000000
 97
0
 75
0
 76
1
 98
1
 10
0.000000
 20
0.000000
  0
TEXT
  5
5f3
100
AcDbEntity
  8
PINNUMBERS
100
AcDbText
 10
59.588333
 20
9.531000
 11
59.800000
 21
9.531000
 40
0.635000
 41
0.878740
 50
270.000000
  7
STANDARD
 71
0
 72
2
  1
24
100
AcDbText
 73
0
  0
HATCH
  5
5f9
100
AcDbEntity
  8
ETCH
100
AcDbHatch
 10
0.000000
 20
0.000000
 30
0.000000
210
0.000000
220
0.000000
230
1.000000
  2
SOLID
 70
1
 71
0
 91
1
 92
2
 72
1
 73
1
 93
4
 10
59.075000
 20
4.889000
 42
0.000000
 10
59.525000
 20
4.889000
 42
0.000000
 10
59.525000
 20
3.289000
 42
0.000000
 10
59.075000
 20
3.289000
 42
0.000000
 97
0
 75
0
 76
1
 98
1
 10
0.000000
 20
0.000000
  0
TEXT
  5
5fa
100
AcDbEntity
  8
PINNUMBERS
100
AcDbText
 10
58.688333
 20
3.359000
 11
58.900000
 21
3.359000
 40
0.635000
 41
0.878740
 50
270.000000
  7
STANDARD
 71
0
 72
2
  1
25
100
AcDbText
 73
0
  0
HATCH
  5
600
100
AcDbEntity
  8
ETCH
100
AcDbHatch
 10
0.000000
 20
0.000000
 30
0.000000
210
0.000000
220
0.000000
230
1.000000
  2
SOLID
 70
1
 71
0
 91
1
 92
2
 72
1
 73
1
 93
4
 10
59.075000
 20
11.061000
 42
0.000000
 10
59.525000
 20
11.061000
 42
0.000000
 10
59.525000
 20
9.461000
 42
0.000000
 10
59.075000
 20
9.461000
 42
0.000000
 97
0
 75
0
 76
1
 98
1
 10
0.000000
 20
0.000000
  0
TEXT
  5
601
100
AcDbEntity
  8
PINNUMBERS
100
AcDbText
 10
58.788333
 20
9.531000
 11
59.000000
 21
9.531000
 40
0.635000
 41
0.878740
 50
270.000000
  7
STANDARD
 71
0
 72
2
  1
26
100
AcDbText
 73
0
  0
HATCH
  5
607
100
AcDbEntity
  8
ETCH
100
AcDbHatch
 10
0.000000
 20
0.000000
 30
0.000000
210
0.000000
220
0.000000
230
1.000000
  2
SOLID
 70
1
 71
0
 91
1
 92
2
 72
1
 73
1
 93
4
 10
58.275000
 20
4.889000
 42
0.000000
 10
58.725000
 20
4.889000
 42
0.000000
 10
58.725000
 20
3.289000
 42
0.000000
 10
58.275000
 20
3.289000
 42
0.000000
 97
0
 75
0
 76
1
 98
1
 10
0.000000
 20
0.000000
  0
TEXT
  5
608
100
AcDbEntity
  8
PINNUMBERS
100
AcDbText
 10
57.888333
 20
3.359000
 11
58.100000
 21
3.359000
 40
0.635000
 41
0.878740
 50
270.000000
  7
STANDARD
 71
0
 72
2
  1
27
100
AcDbText
 73
0
  0
HATCH
  5
60e
100
AcDbEntity
  8
ETCH
100
AcDbHatch
 10
0.000000
 20
0.000000
 30
0.000000
210
0.000000
220
0.000000
230
1.000000
  2
SOLID
 70
1
 71
0
 91
1
 92
2
 72
1
 73
1
 93
4
 10
58.275000
 20
11.061000
 42
0.000000
 10
58.725000
 20
11.061000
 42
0.000000
 10
58.725000
 20
9.461000
 42
0.000000
 10
58.275000
 20
9.461000
 42
0.000000
 97
0
 75
0
 76
1
 98
1
 10
0.000000
 20
0.000000
  0
TEXT
  5
60f
100
AcDbEntity
  8
PINNUMBERS
100
AcDbText
 10
57.988333
 20
9.531000
 11
58.200000
 21
9.531000
 40
0.635000
 41
0.878740
 50
270.000000
  7
STANDARD
 71
0
 72
2
  1
28
100
AcDbText
 73
0
  0
HATCH
  5
615
100
AcDbEntity
  8
ETCH
100
AcDbHatch
 10
0.000000
 20
0.000000
 30
0.000000
210
0.000000
220
0.000000
230
1.000000
  2
SOLID
 70
1
 71
0
 91
1
 92
2
 72
1
 73
1
 93
4
 10
57.475000
 20
4.889000
 42
0.000000
 10
57.925000
 20
4.889000
 42
0.000000
 10
57.925000
 20
3.289000
 42
0.000000
 10
57.475000
 20
3.289000
 42
0.000000
 97
0
 75
0
 76
1
 98
1
 10
0.000000
 20
0.000000
  0
TEXT
  5
616
100
AcDbEntity
  8
PINNUMBERS
100
AcDbText
 10
57.088333
 20
3.359000
 11
57.300000
 21
3.359000
 40
0.635000
 41
0.878740
 50
270.000000
  7
STANDARD
 71
0
 72
2
  1
29
100
AcDbText
 73
0
  0
HATCH
  5
61c
100
AcDbEntity
  8
ETCH
100
AcDbHatch
 10
0.000000
 20
0.000000
 30
0.000000
210
0.000000
220
0.000000
230
1.000000
  2
SOLID
 70
1
 71
0
 91
1
 92
2
 72
1
 73
1
 93
4
 10
57.475000
 20
11.061000
 42
0.000000
 10
57.925000
 20
11.061000
 42
0.000000
 10
57.925000
 20
9.461000
 42
0.000000
 10
57.475000
 20
9.461000
 42
0.000000
 97
0
 75
0
 76
1
 98
1
 10
0.000000
 20
0.000000
  0
TEXT
  5
61d
100
AcDbEntity
  8
PINNUMBERS
100
AcDbText
 10
57.188333
 20
9.531000
 11
57.400000
 21
9.531000
 40
0.635000
 41
0.878740
 50
270.000000
  7
STANDARD
 71
0
 72
2
  1
30
100
AcDbText
 73
0
  0
HATCH
  5
623
100
AcDbEntity
  8
ETCH
100
AcDbHatch
 10
0.000000
 20
0.000000
 30
0.000000
210
0.000000
220
0.000000
230
1.000000
  2
SOLID
 70
1
 71
0
 91
1
 92
2
 72
1
 73
1
 93
4
 10
56.675000
 20
4.889000
 42
0.000000
 10
57.125000
 20
4.889000
 42
0.000000
 10
57.125000
 20
3.289000
 42
0.000000
 10
56.675000
 20
3.289000
 42
0.000000
 97
0
 75
0
 76
1
 98
1
 10
0.000000
 20
0.000000
  0
TEXT
  5
624
100
AcDbEntity
  8
PINNUMBERS
100
AcDbText
 10
56.288333
 20
3.359000
 11
56.500000
 21
3.359000
 40
0.635000
 41
0.878740
 50
270.000000
  7
STANDARD
 71
0
 72
2
  1
31
100
AcDbText
 73
0
  0
HATCH
  5
62a
100
AcDbEntity
  8
ETCH
100
AcDbHatch
 10
0.000000
 20
0.000000
 30
0.000000
210
0.000000
220
0.000000
230
1.000000
  2
SOLID
 70
1
 71
0
 91
1
 92
2
 72
1
 73
1
 93
4
 10
56.675000
 20
11.061000
 42
0.000000
 10
57.125000
 20
11.061000
 42
0.000000
 10
57.125000
 20
9.461000
 42
0.000000
 10
56.675000
 20
9.461000
 42
0.000000
 97
0
 75
0
 76
1
 98
1
 10
0.000000
 20
0.000000
  0
TEXT
  5
62b
100
AcDbEntity
  8
PINNUMBERS
100
AcDbText
 10
56.388333
 20
9.531000
 11
56.600000
 21
9.531000
 40
0.635000
 41
0.878740
 50
270.000000
  7
STANDARD
 71
0
 72
2
  1
32
100
AcDbText
 73
0
  0
HATCH
  5
631
100
AcDbEntity
  8
ETCH
100
AcDbHatch
 10
0.000000
 20
0.000000
 30
0.000000
210
0.000000
220
0.000000
230
1.000000
  2
SOLID
 70
1
 71
0
 91
1
 92
2
 72
1
 73
1
 93
4
 10
55.875000
 20
4.889000
 42
0.000000
 10
56.325000
 20
4.889000
 42
0.000000
 10
56.325000
 20
3.289000
 42
0.000000
 10
55.875000
 20
3.289000
 42
0.000000
 97
0
 75
0
 76
1
 98
1
 10
0.000000
 20
0.000000
  0
TEXT
  5
632
100
AcDbEntity
  8
PINNUMBERS
100
AcDbText
 10
55.488333
 20
3.359000
 11
55.700000
 21
3.359000
 40
0.635000
 41
0.878740
 50
270.000000
  7
STANDARD
 71
0
 72
2
  1
33
100
AcDbText
 73
0
  0
HATCH
  5
638
100
AcDbEntity
  8
ETCH
100
AcDbHatch
 10
0.000000
 20
0.000000
 30
0.000000
210
0.000000
220
0.000000
230
1.000000
  2
SOLID
 70
1
 71
0
 91
1
 92
2
 72
1
 73
1
 93
4
 10
55.875000
 20
11.061000
 42
0.000000
 10
56.325000
 20
11.061000
 42
0.000000
 10
56.325000
 20
9.461000
 42
0.000000
 10
55.875000
 20
9.461000
 42
0.000000
 97
0
 75
0
 76
1
 98
1
 10
0.000000
 20
0.000000
  0
TEXT
  5
639
100
AcDbEntity
  8
PINNUMBERS
100
AcDbText
 10
55.588333
 20
9.531000
 11
55.800000
 21
9.531000
 40
0.635000
 41
0.878740
 50
270.000000
  7
STANDARD
 71
0
 72
2
  1
34
100
AcDbText
 73
0
  0
HATCH
  5
63f
100
AcDbEntity
  8
ETCH
100
AcDbHatch
 10
0.000000
 20
0.000000
 30
0.000000
210
0.000000
220
0.000000
230
1.000000
  2
SOLID
 70
1
 71
0
 91
1
 92
2
 72
1
 73
1
 93
4
 10
55.075000
 20
4.889000
 42
0.000000
 10
55.525000
 20
4.889000
 42
0.000000
 10
55.525000
 20
3.289000
 42
0.000000
 10
55.075000
 20
3.289000
 42
0.000000
 97
0
 75
0
 76
1
 98
1
 10
0.000000
 20
0.000000
  0
TEXT
  5
640
100
AcDbEntity
  8
PINNUMBERS
100
AcDbText
 10
54.688333
 20
3.359000
 11
54.900000
 21
3.359000
 40
0.635000
 41
0.878740
 50
270.000000
  7
STANDARD
 71
0
 72
2
  1
35
100
AcDbText
 73
0
  0
HATCH
  5
646
100
AcDbEntity
  8
ETCH
100
AcDbHatch
 10
0.000000
 20
0.000000
 30
0.000000
210
0.000000
220
0.000000
230
1.000000
  2
SOLID
 70
1
 71
0
 91
1
 92
2
 72
1
 73
1
 93
4
 10
55.075000
 20
11.061000
 42
0.000000
 10
55.525000
 20
11.061000
 42
0.000000
 10
55.525000
 20
9.461000
 42
0.000000
 10
55.075000
 20
9.461000
 42
0.000000
 97
0
 75
0
 76
1
 98
1
 10
0.000000
 20
0.000000
  0
TEXT
  5
647
100
AcDbEntity
  8
PINNUMBERS
100
AcDbText
 10
54.788333
 20
9.531000
 11
55.000000
 21
9.531000
 40
0.635000
 41
0.878740
 50
270.000000
  7
STANDARD
 71
0
 72
2
  1
36
100
AcDbText
 73
0
  0
HATCH
  5
64d
100
AcDbEntity
  8
ETCH
100
AcDbHatch
 10
0.000000
 20
0.000000
 30
0.000000
210
0.000000
220
0.000000
230
1.000000
  2
SOLID
 70
1
 71
0
 91
1
 92
2
 72
1
 73
1
 93
4
 10
54.275000
 20
4.889000
 42
0.000000
 10
54.725000
 20
4.889000
 42
0.000000
 10
54.725000
 20
3.289000
 42
0.000000
 10
54.275000
 20
3.289000
 42
0.000000
 97
0
 75
0
 76
1
 98
1
 10
0.000000
 20
0.000000
  0
TEXT
  5
64e
100
AcDbEntity
  8
PINNUMBERS
100
AcDbText
 10
53.888333
 20
3.359000
 11
54.100000
 21
3.359000
 40
0.635000
 41
0.878740
 50
270.000000
  7
STANDARD
 71
0
 72
2
  1
37
100
AcDbText
 73
0
  0
HATCH
  5
654
100
AcDbEntity
  8
ETCH
100
AcDbHatch
 10
0.000000
 20
0.000000
 30
0.000000
210
0.000000
220
0.000000
230
1.000000
  2
SOLID
 70
1
 71
0
 91
1
 92
2
 72
1
 73
1
 93
4
 10
54.275000
 20
11.061000
 42
0.000000
 10
54.725000
 20
11.061000
 42
0.000000
 10
54.725000
 20
9.461000
 42
0.000000
 10
54.275000
 20
9.461000
 42
0.000000
 97
0
 75
0
 76
1
 98
1
 10
0.000000
 20
0.000000
  0
TEXT
  5
655
100
AcDbEntity
  8
PINNUMBERS
100
AcDbText
 10
53.988333
 20
9.531000
 11
54.200000
 21
9.531000
 40
0.635000
 41
0.878740
 50
270.000000
  7
STANDARD
 71
0
 72
2
  1
38
100
AcDbText
 73
0
  0
HATCH
  5
65b
100
AcDbEntity
  8
ETCH
100
AcDbHatch
 10
0.000000
 20
0.000000
 30
0.000000
210
0.000000
220
0.000000
230
1.000000
  2
SOLID
 70
1
 71
0
 91
1
 92
2
 72
1
 73
1
 93
4
 10
53.475000
 20
4.889000
 42
0.000000
 10
53.925000
 20
4.889000
 42
0.000000
 10
53.925000
 20
3.289000
 42
0.000000
 10
53.475000
 20
3.289000
 42
0.000000
 97
0
 75
0
 76
1
 98
1
 10
0.000000
 20
0.000000
  0
TEXT
  5
65c
100
AcDbEntity
  8
PINNUMBERS
100
AcDbText
 10
53.088333
 20
3.359000
 11
53.300000
 21
3.359000
 40
0.635000
 41
0.878740
 50
270.000000
  7
STANDARD
 71
0
 72
2
  1
39
100
AcDbText
 73
0
  0
HATCH
  5
662
100
AcDbEntity
  8
ETCH
100
AcDbHatch
 10
0.000000
 20
0.000000
 30
0.000000
210
0.000000
220
0.000000
230
1.000000
  2
SOLID
 70
1
 71
0
 91
1
 92
2
 72
1
 73
1
 93
4
 10
53.475000
 20
11.061000
 42
0.000000
 10
53.925000
 20
11.061000
 42
0.000000
 10
53.925000
 20
9.461000
 42
0.000000
 10
53.475000
 20
9.461000
 42
0.000000
 97
0
 75
0
 76
1
 98
1
 10
0.000000
 20
0.000000
  0
TEXT
  5
663
100
AcDbEntity
  8
PINNUMBERS
100
AcDbText
 10
53.188333
 20
9.531000
 11
53.400000
 21
9.531000
 40
0.635000
 41
0.878740
 50
270.000000
  7
STANDARD
 71
0
 72
2
  1
40
100
AcDbText
 73
0
  0
HATCH
  5
669
100
AcDbEntity
  8
ETCH
100
AcDbHatch
 10
0.000000
 20
0.000000
 30
0.000000
210
0.000000
220
0.000000
230
1.000000
  2
SOLID
 70
1
 71
0
 91
1
 92
2
 72
1
 73
1
 93
4
 10
48.675000
 20
4.889000
 42
0.000000
 10
49.125000
 20
4.889000
 42
0.000000
 10
49.125000
 20
3.289000
 42
0.000000
 10
48.675000
 20
3.289000
 42
0.000000
 97
0
 75
0
 76
1
 98
1
 10
0.000000
 20
0.000000
  0
TEXT
  5
66a
100
AcDbEntity
  8
PINNUMBERS
100
AcDbText
 10
48.288333
 20
3.359000
 11
48.500000
 21
3.359000
 40
0.635000
 41
0.878740
 50
270.000000
  7
STANDARD
 71
0
 72
2
  1
41
100
AcDbText
 73
0
  0
HATCH
  5
670
100
AcDbEntity
  8
ETCH
100
AcDbHatch
 10
0.000000
 20
0.000000
 30
0.000000
210
0.000000
220
0.000000
230
1.000000
  2
SOLID
 70
1
 71
0
 91
1
 92
2
 72
1
 73
1
 93
4
 10
48.675000
 20
11.061000
 42
0.000000
 10
49.125000
 20
11.061000
 42
0.000000
 10
49.125000
 20
9.461000
 42
0.000000
 10
48.675000
 20
9.461000
 42
0.000000
 97
0
 75
0
 76
1
 98
1
 10
0.000000
 20
0.000000
  0
TEXT
  5
671
100
AcDbEntity
  8
PINNUMBERS
100
AcDbText
 10
48.388333
 20
9.531000
 11
48.600000
 21
9.531000
 40
0.635000
 41
0.878740
 50
270.000000
  7
STANDARD
 71
0
 72
2
  1
42
100
AcDbText
 73
0
  0
HATCH
  5
677
100
AcDbEntity
  8
ETCH
100
AcDbHatch
 10
0.000000
 20
0.000000
 30
0.000000
210
0.000000
220
0.000000
230
1.000000
  2
SOLID
 70
1
 71
0
 91
1
 92
2
 72
1
 73
1
 93
4
 10
47.875000
 20
4.889000
 42
0.000000
 10
48.325000
 20
4.889000
 42
0.000000
 10
48.325000
 20
3.289000
 42
0.000000
 10
47.875000
 20
3.289000
 42
0.000000
 97
0
 75
0
 76
1
 98
1
 10
0.000000
 20
0.000000
  0
TEXT
  5
678
100
AcDbEntity
  8
PINNUMBERS
100
AcDbText
 10
47.488333
 20
3.359000
 11
47.700000
 21
3.359000
 40
0.635000
 41
0.878740
 50
270.000000
  7
STANDARD
 71
0
 72
2
  1
43
100
AcDbText
 73
0
  0
HATCH
  5
67e
100
AcDbEntity
  8
ETCH
100
AcDbHatch
 10
0.000000
 20
0.000000
 30
0.000000
210
0.000000
220
0.000000
230
1.000000
  2
SOLID
 70
1
 71
0
 91
1
 92
2
 72
1
 73
1
 93
4
 10
47.875000
 20
11.061000
 42
0.000000
 10
48.325000
 20
11.061000
 42
0.000000
 10
48.325000
 20
9.461000
 42
0.000000
 10
47.875000
 20
9.461000
 42
0.000000
 97
0
 75
0
 76
1
 98
1
 10
0.000000
 20
0.000000
  0
TEXT
  5
67f
100
AcDbEntity
  8
PINNUMBERS
100
AcDbText
 10
47.588333
 20
9.531000
 11
47.800000
 21
9.531000
 40
0.635000
 41
0.878740
 50
270.000000
  7
STANDARD
 71
0
 72
2
  1
44
100
AcDbText
 73
0
  0
HATCH
  5
685
100
AcDbEntity
  8
ETCH
100
AcDbHatch
 10
0.000000
 20
0.000000
 30
0.000000
210
0.000000
220
0.000000
230
1.000000
  2
SOLID
 70
1
 71
0
 91
1
 92
2
 72
1
 73
1
 93
4
 10
47.075000
 20
4.889000
 42
0.000000
 10
47.525000
 20
4.889000
 42
0.000000
 10
47.525000
 20
3.289000
 42
0.000000
 10
47.075000
 20
3.289000
 42
0.000000
 97
0
 75
0
 76
1
 98
1
 10
0.000000
 20
0.000000
  0
TEXT
  5
686
100
AcDbEntity
  8
PINNUMBERS
100
AcDbText
 10
46.688333
 20
3.359000
 11
46.900000
 21
3.359000
 40
0.635000
 41
0.878740
 50
270.000000
  7
STANDARD
 71
0
 72
2
  1
45
100
AcDbText
 73
0
  0
HATCH
  5
68c
100
AcDbEntity
  8
ETCH
100
AcDbHatch
 10
0.000000
 20
0.000000
 30
0.000000
210
0.000000
220
0.000000
230
1.000000
  2
SOLID
 70
1
 71
0
 91
1
 92
2
 72
1
 73
1
 93
4
 10
47.075000
 20
11.061000
 42
0.000000
 10
47.525000
 20
11.061000
 42
0.000000
 10
47.525000
 20
9.461000
 42
0.000000
 10
47.075000
 20
9.461000
 42
0.000000
 97
0
 75
0
 76
1
 98
1
 10
0.000000
 20
0.000000
  0
TEXT
  5
68d
100
AcDbEntity
  8
PINNUMBERS
100
AcDbText
 10
46.788333
 20
9.531000
 11
47.000000
 21
9.531000
 40
0.635000
 41
0.878740
 50
270.000000
  7
STANDARD
 71
0
 72
2
  1
46
100
AcDbText
 73
0
  0
HATCH
  5
693
100
AcDbEntity
  8
ETCH
100
AcDbHatch
 10
0.000000
 20
0.000000
 30
0.000000
210
0.000000
220
0.000000
230
1.000000
  2
SOLID
 70
1
 71
0
 91
1
 92
2
 72
1
 73
1
 93
4
 10
46.275000
 20
4.889000
 42
0.000000
 10
46.725000
 20
4.889000
 42
0.000000
 10
46.725000
 20
3.289000
 42
0.000000
 10
46.275000
 20
3.289000
 42
0.000000
 97
0
 75
0
 76
1
 98
1
 10
0.000000
 20
0.000000
  0
TEXT
  5
694
100
AcDbEntity
  8
PINNUMBERS
100
AcDbText
 10
45.888333
 20
3.359000
 11
46.100000
 21
3.359000
 40
0.635000
 41
0.878740
 50
270.000000
  7
STANDARD
 71
0
 72
2
  1
47
100
AcDbText
 73
0
  0
HATCH
  5
69a
100
AcDbEntity
  8
ETCH
100
AcDbHatch
 10
0.000000
 20
0.000000
 30
0.000000
210
0.000000
220
0.000000
230
1.000000
  2
SOLID
 70
1
 71
0
 91
1
 92
2
 72
1
 73
1
 93
4
 10
46.275000
 20
11.061000
 42
0.000000
 10
46.725000
 20
11.061000
 42
0.000000
 10
46.725000
 20
9.461000
 42
0.000000
 10
46.275000
 20
9.461000
 42
0.000000
 97
0
 75
0
 76
1
 98
1
 10
0.000000
 20
0.000000
  0
TEXT
  5
69b
100
AcDbEntity
  8
PINNUMBERS
100
AcDbText
 10
45.988333
 20
9.531000
 11
46.200000
 21
9.531000
 40
0.635000
 41
0.878740
 50
270.000000
  7
STANDARD
 71
0
 72
2
  1
48
100
AcDbText
 73
0
  0
HATCH
  5
6a1
100
AcDbEntity
  8
ETCH
100
AcDbHatch
 10
0.000000
 20
0.000000
 30
0.000000
210
0.000000
220
0.000000
230
1.000000
  2
SOLID
 70
1
 71
0
 91
1
 92
2
 72
1
 73
1
 93
4
 10
45.475000
 20
4.889000
 42
0.000000
 10
45.925000
 20
4.889000
 42
0.000000
 10
45.925000
 20
3.289000
 42
0.000000
 10
45.475000
 20
3.289000
 42
0.000000
 97
0
 75
0
 76
1
 98
1
 10
0.000000
 20
0.000000
  0
TEXT
  5
6a2
100
AcDbEntity
  8
PINNUMBERS
100
AcDbText
 10
45.088333
 20
3.359000
 11
45.300000
 21
3.359000
 40
0.635000
 41
0.878740
 50
270.000000
  7
STANDARD
 71
0
 72
2
  1
49
100
AcDbText
 73
0
  0
HATCH
  5
6a8
100
AcDbEntity
  8
ETCH
100
AcDbHatch
 10
0.000000
 20
0.000000
 30
0.000000
210
0.000000
220
0.000000
230
1.000000
  2
SOLID
 70
1
 71
0
 91
1
 92
2
 72
1
 73
1
 93
4
 10
45.475000
 20
11.061000
 42
0.000000
 10
45.925000
 20
11.061000
 42
0.000000
 10
45.925000
 20
9.461000
 42
0.000000
 10
45.475000
 20
9.461000
 42
0.000000
 97
0
 75
0
 76
1
 98
1
 10
0.000000
 20
0.000000
  0
TEXT
  5
6a9
100
AcDbEntity
  8
PINNUMBERS
100
AcDbText
 10
45.188333
 20
9.531000
 11
45.400000
 21
9.531000
 40
0.635000
 41
0.878740
 50
270.000000
  7
STANDARD
 71
0
 72
2
  1
50
100
AcDbText
 73
0
  0
HATCH
  5
6af
100
AcDbEntity
  8
ETCH
100
AcDbHatch
 10
0.000000
 20
0.000000
 30
0.000000
210
0.000000
220
0.000000
230
1.000000
  2
SOLID
 70
1
 71
0
 91
1
 92
2
 72
1
 73
1
 93
4
 10
44.675000
 20
4.889000
 42
0.000000
 10
45.125000
 20
4.889000
 42
0.000000
 10
45.125000
 20
3.289000
 42
0.000000
 10
44.675000
 20
3.289000
 42
0.000000
 97
0
 75
0
 76
1
 98
1
 10
0.000000
 20
0.000000
  0
TEXT
  5
6b0
100
AcDbEntity
  8
PINNUMBERS
100
AcDbText
 10
44.288333
 20
3.359000
 11
44.500000
 21
3.359000
 40
0.635000
 41
0.878740
 50
270.000000
  7
STANDARD
 71
0
 72
2
  1
51
100
AcDbText
 73
0
  0
HATCH
  5
6b6
100
AcDbEntity
  8
ETCH
100
AcDbHatch
 10
0.000000
 20
0.000000
 30
0.000000
210
0.000000
220
0.000000
230
1.000000
  2
SOLID
 70
1
 71
0
 91
1
 92
2
 72
1
 73
1
 93
4
 10
44.675000
 20
11.061000
 42
0.000000
 10
45.125000
 20
11.061000
 42
0.000000
 10
45.125000
 20
9.461000
 42
0.000000
 10
44.675000
 20
9.461000
 42
0.000000
 97
0
 75
0
 76
1
 98
1
 10
0.000000
 20
0.000000
  0
TEXT
  5
6b7
100
AcDbEntity
  8
PINNUMBERS
100
AcDbText
 10
44.388333
 20
9.531000
 11
44.600000
 21
9.531000
 40
0.635000
 41
0.878740
 50
270.000000
  7
STANDARD
 71
0
 72
2
  1
52
100
AcDbText
 73
0
  0
HATCH
  5
6bd
100
AcDbEntity
  8
ETCH
100
AcDbHatch
 10
0.000000
 20
0.000000
 30
0.000000
210
0.000000
220
0.000000
230
1.000000
  2
SOLID
 70
1
 71
0
 91
1
 92
2
 72
1
 73
1
 93
4
 10
43.875000
 20
4.889000
 42
0.000000
 10
44.325000
 20
4.889000
 42
0.000000
 10
44.325000
 20
3.289000
 42
0.000000
 10
43.875000
 20
3.289000
 42
0.000000
 97
0
 75
0
 76
1
 98
1
 10
0.000000
 20
0.000000
  0
TEXT
  5
6be
100
AcDbEntity
  8
PINNUMBERS
100
AcDbText
 10
43.488333
 20
3.359000
 11
43.700000
 21
3.359000
 40
0.635000
 41
0.878740
 50
270.000000
  7
STANDARD
 71
0
 72
2
  1
53
100
AcDbText
 73
0
  0
HATCH
  5
6c4
100
AcDbEntity
  8
ETCH
100
AcDbHatch
 10
0.000000
 20
0.000000
 30
0.000000
210
0.000000
220
0.000000
230
1.000000
  2
SOLID
 70
1
 71
0
 91
1
 92
2
 72
1
 73
1
 93
4
 10
43.875000
 20
11.061000
 42
0.000000
 10
44.325000
 20
11.061000
 42
0.000000
 10
44.325000
 20
9.461000
 42
0.000000
 10
43.875000
 20
9.461000
 42
0.000000
 97
0
 75
0
 76
1
 98
1
 10
0.000000
 20
0.000000
  0
TEXT
  5
6c5
100
AcDbEntity
  8
PINNUMBERS
100
AcDbText
 10
43.588333
 20
9.531000
 11
43.800000
 21
9.531000
 40
0.635000
 41
0.878740
 50
270.000000
  7
STANDARD
 71
0
 72
2
  1
54
100
AcDbText
 73
0
  0
HATCH
  5
6cb
100
AcDbEntity
  8
ETCH
100
AcDbHatch
 10
0.000000
 20
0.000000
 30
0.000000
210
0.000000
220
0.000000
230
1.000000
  2
SOLID
 70
1
 71
0
 91
1
 92
2
 72
1
 73
1
 93
4
 10
43.075000
 20
4.889000
 42
0.000000
 10
43.525000
 20
4.889000
 42
0.000000
 10
43.525000
 20
3.289000
 42
0.000000
 10
43.075000
 20
3.289000
 42
0.000000
 97
0
 75
0
 76
1
 98
1
 10
0.000000
 20
0.000000
  0
TEXT
  5
6cc
100
AcDbEntity
  8
PINNUMBERS
100
AcDbText
 10
42.688333
 20
3.359000
 11
42.900000
 21
3.359000
 40
0.635000
 41
0.878740
 50
270.000000
  7
STANDARD
 71
0
 72
2
  1
55
100
AcDbText
 73
0
  0
HATCH
  5
6d2
100
AcDbEntity
  8
ETCH
100
AcDbHatch
 10
0.000000
 20
0.000000
 30
0.000000
210
0.000000
220
0.000000
230
1.000000
  2
SOLID
 70
1
 71
0
 91
1
 92
2
 72
1
 73
1
 93
4
 10
43.075000
 20
11.061000
 42
0.000000
 10
43.525000
 20
11.061000
 42
0.000000
 10
43.525000
 20
9.461000
 42
0.000000
 10
43.075000
 20
9.461000
 42
0.000000
 97
0
 75
0
 76
1
 98
1
 10
0.000000
 20
0.000000
  0
TEXT
  5
6d3
100
AcDbEntity
  8
PINNUMBERS
100
AcDbText
 10
42.788333
 20
9.531000
 11
43.000000
 21
9.531000
 40
0.635000
 41
0.878740
 50
270.000000
  7
STANDARD
 71
0
 72
2
  1
56
100
AcDbText
 73
0
  0
HATCH
  5
6d9
100
AcDbEntity
  8
ETCH
100
AcDbHatch
 10
0.000000
 20
0.000000
 30
0.000000
210
0.000000
220
0.000000
230
1.000000
  2
SOLID
 70
1
 71
0
 91
1
 92
2
 72
1
 73
1
 93
4
 10
42.275000
 20
4.889000
 42
0.000000
 10
42.725000
 20
4.889000
 42
0.000000
 10
42.725000
 20
3.289000
 42
0.000000
 10
42.275000
 20
3.289000
 42
0.000000
 97
0
 75
0
 76
1
 98
1
 10
0.000000
 20
0.000000
  0
TEXT
  5
6da
100
AcDbEntity
  8
PINNUMBERS
100
AcDbText
 10
41.888333
 20
3.359000
 11
42.100000
 21
3.359000
 40
0.635000
 41
0.878740
 50
270.000000
  7
STANDARD
 71
0
 72
2
  1
57
100
AcDbText
 73
0
  0
HATCH
  5
6e0
100
AcDbEntity
  8
ETCH
100
AcDbHatch
 10
0.000000
 20
0.000000
 30
0.000000
210
0.000000
220
0.000000
230
1.000000
  2
SOLID
 70
1
 71
0
 91
1
 92
2
 72
1
 73
1
 93
4
 10
42.275000
 20
11.061000
 42
0.000000
 10
42.725000
 20
11.061000
 42
0.000000
 10
42.725000
 20
9.461000
 42
0.000000
 10
42.275000
 20
9.461000
 42
0.000000
 97
0
 75
0
 76
1
 98
1
 10
0.000000
 20
0.000000
  0
TEXT
  5
6e1
100
AcDbEntity
  8
PINNUMBERS
100
AcDbText
 10
41.988333
 20
9.531000
 11
42.200000
 21
9.531000
 40
0.635000
 41
0.878740
 50
270.000000
  7
STANDARD
 71
0
 72
2
  1
58
100
AcDbText
 73
0
  0
HATCH
  5
6e7
100
AcDbEntity
  8
ETCH
100
AcDbHatch
 10
0.000000
 20
0.000000
 30
0.000000
210
0.000000
220
0.000000
230
1.000000
  2
SOLID
 70
1
 71
0
 91
1
 92
2
 72
1
 73
1
 93
4
 10
41.475000
 20
4.889000
 42
0.000000
 10
41.925000
 20
4.889000
 42
0.000000
 10
41.925000
 20
3.289000
 42
0.000000
 10
41.475000
 20
3.289000
 42
0.000000
 97
0
 75
0
 76
1
 98
1
 10
0.000000
 20
0.000000
  0
TEXT
  5
6e8
100
AcDbEntity
  8
PINNUMBERS
100
AcDbText
 10
41.088333
 20
3.359000
 11
41.300000
 21
3.359000
 40
0.635000
 41
0.878740
 50
270.000000
  7
STANDARD
 71
0
 72
2
  1
59
100
AcDbText
 73
0
  0
HATCH
  5
6ee
100
AcDbEntity
  8
ETCH
100
AcDbHatch
 10
0.000000
 20
0.000000
 30
0.000000
210
0.000000
220
0.000000
230
1.000000
  2
SOLID
 70
1
 71
0
 91
1
 92
2
 72
1
 73
1
 93
4
 10
41.475000
 20
11.061000
 42
0.000000
 10
41.925000
 20
11.061000
 42
0.000000
 10
41.925000
 20
9.461000
 42
0.000000
 10
41.475000
 20
9.461000
 42
0.000000
 97
0
 75
0
 76
1
 98
1
 10
0.000000
 20
0.000000
  0
TEXT
  5
6ef
100
AcDbEntity
  8
PINNUMBERS
100
AcDbText
 10
41.188333
 20
9.531000
 11
41.400000
 21
9.531000
 40
0.635000
 41
0.878740
 50
270.000000
  7
STANDARD
 71
0
 72
2
  1
60
100
AcDbText
 73
0
  0
HATCH
  5
6f5
100
AcDbEntity
  8
ETCH
100
AcDbHatch
 10
0.000000
 20
0.000000
 30
0.000000
210
0.000000
220
0.000000
230
1.000000
  2
SOLID
 70
1
 71
0
 91
1
 92
2
 72
1
 73
1
 93
4
 10
40.675000
 20
4.889000
 42
0.000000
 10
41.125000
 20
4.889000
 42
0.000000
 10
41.125000
 20
3.289000
 42
0.000000
 10
40.675000
 20
3.289000
 42
0.000000
 97
0
 75
0
 76
1
 98
1
 10
0.000000
 20
0.000000
  0
TEXT
  5
6f6
100
AcDbEntity
  8
PINNUMBERS
100
AcDbText
 10
40.288333
 20
3.359000
 11
40.500000
 21
3.359000
 40
0.635000
 41
0.878740
 50
270.000000
  7
STANDARD
 71
0
 72
2
  1
61
100
AcDbText
 73
0
  0
HATCH
  5
6fc
100
AcDbEntity
  8
ETCH
100
AcDbHatch
 10
0.000000
 20
0.000000
 30
0.000000
210
0.000000
220
0.000000
230
1.000000
  2
SOLID
 70
1
 71
0
 91
1
 92
2
 72
1
 73
1
 93
4
 10
40.675000
 20
11.061000
 42
0.000000
 10
41.125000
 20
11.061000
 42
0.000000
 10
41.125000
 20
9.461000
 42
0.000000
 10
40.675000
 20
9.461000
 42
0.000000
 97
0
 75
0
 76
1
 98
1
 10
0.000000
 20
0.000000
  0
TEXT
  5
6fd
100
AcDbEntity
  8
PINNUMBERS
100
AcDbText
 10
40.388333
 20
9.531000
 11
40.600000
 21
9.531000
 40
0.635000
 41
0.878740
 50
270.000000
  7
STANDARD
 71
0
 72
2
  1
62
100
AcDbText
 73
0
  0
HATCH
  5
703
100
AcDbEntity
  8
ETCH
100
AcDbHatch
 10
0.000000
 20
0.000000
 30
0.000000
210
0.000000
220
0.000000
230
1.000000
  2
SOLID
 70
1
 71
0
 91
1
 92
2
 72
1
 73
1
 93
4
 10
39.875000
 20
4.889000
 42
0.000000
 10
40.325000
 20
4.889000
 42
0.000000
 10
40.325000
 20
3.289000
 42
0.000000
 10
39.875000
 20
3.289000
 42
0.000000
 97
0
 75
0
 76
1
 98
1
 10
0.000000
 20
0.000000
  0
TEXT
  5
704
100
AcDbEntity
  8
PINNUMBERS
100
AcDbText
 10
39.488333
 20
3.359000
 11
39.700000
 21
3.359000
 40
0.635000
 41
0.878740
 50
270.000000
  7
STANDARD
 71
0
 72
2
  1
63
100
AcDbText
 73
0
  0
HATCH
  5
70a
100
AcDbEntity
  8
ETCH
100
AcDbHatch
 10
0.000000
 20
0.000000
 30
0.000000
210
0.000000
220
0.000000
230
1.000000
  2
SOLID
 70
1
 71
0
 91
1
 92
2
 72
1
 73
1
 93
4
 10
39.875000
 20
11.061000
 42
0.000000
 10
40.325000
 20
11.061000
 42
0.000000
 10
40.325000
 20
9.461000
 42
0.000000
 10
39.875000
 20
9.461000
 42
0.000000
 97
0
 75
0
 76
1
 98
1
 10
0.000000
 20
0.000000
  0
TEXT
  5
70b
100
AcDbEntity
  8
PINNUMBERS
100
AcDbText
 10
39.588333
 20
9.531000
 11
39.800000
 21
9.531000
 40
0.635000
 41
0.878740
 50
270.000000
  7
STANDARD
 71
0
 72
2
  1
64
100
AcDbText
 73
0
  0
HATCH
  5
711
100
AcDbEntity
  8
ETCH
100
AcDbHatch
 10
0.000000
 20
0.000000
 30
0.000000
210
0.000000
220
0.000000
230
1.000000
  2
SOLID
 70
1
 71
0
 91
1
 92
2
 72
1
 73
1
 93
4
 10
39.075000
 20
4.889000
 42
0.000000
 10
39.525000
 20
4.889000
 42
0.000000
 10
39.525000
 20
3.289000
 42
0.000000
 10
39.075000
 20
3.289000
 42
0.000000
 97
0
 75
0
 76
1
 98
1
 10
0.000000
 20
0.000000
  0
TEXT
  5
712
100
AcDbEntity
  8
PINNUMBERS
100
AcDbText
 10
38.688333
 20
3.359000
 11
38.900000
 21
3.359000
 40
0.635000
 41
0.878740
 50
270.000000
  7
STANDARD
 71
0
 72
2
  1
65
100
AcDbText
 73
0
  0
HATCH
  5
718
100
AcDbEntity
  8
ETCH
100
AcDbHatch
 10
0.000000
 20
0.000000
 30
0.000000
210
0.000000
220
0.000000
230
1.000000
  2
SOLID
 70
1
 71
0
 91
1
 92
2
 72
1
 73
1
 93
4
 10
39.075000
 20
11.061000
 42
0.000000
 10
39.525000
 20
11.061000
 42
0.000000
 10
39.525000
 20
9.461000
 42
0.000000
 10
39.075000
 20
9.461000
 42
0.000000
 97
0
 75
0
 76
1
 98
1
 10
0.000000
 20
0.000000
  0
TEXT
  5
719
100
AcDbEntity
  8
PINNUMBERS
100
AcDbText
 10
38.788333
 20
9.531000
 11
39.000000
 21
9.531000
 40
0.635000
 41
0.878740
 50
270.000000
  7
STANDARD
 71
0
 72
2
  1
66
100
AcDbText
 73
0
  0
HATCH
  5
71f
100
AcDbEntity
  8
ETCH
100
AcDbHatch
 10
0.000000
 20
0.000000
 30
0.000000
210
0.000000
220
0.000000
230
1.000000
  2
SOLID
 70
1
 71
0
 91
1
 92
2
 72
1
 73
1
 93
4
 10
38.275000
 20
4.889000
 42
0.000000
 10
38.725000
 20
4.889000
 42
0.000000
 10
38.725000
 20
3.289000
 42
0.000000
 10
38.275000
 20
3.289000
 42
0.000000
 97
0
 75
0
 76
1
 98
1
 10
0.000000
 20
0.000000
  0
TEXT
  5
720
100
AcDbEntity
  8
PINNUMBERS
100
AcDbText
 10
37.888333
 20
3.359000
 11
38.100000
 21
3.359000
 40
0.635000
 41
0.878740
 50
270.000000
  7
STANDARD
 71
0
 72
2
  1
67
100
AcDbText
 73
0
  0
HATCH
  5
726
100
AcDbEntity
  8
ETCH
100
AcDbHatch
 10
0.000000
 20
0.000000
 30
0.000000
210
0.000000
220
0.000000
230
1.000000
  2
SOLID
 70
1
 71
0
 91
1
 92
2
 72
1
 73
1
 93
4
 10
38.275000
 20
11.061000
 42
0.000000
 10
38.725000
 20
11.061000
 42
0.000000
 10
38.725000
 20
9.461000
 42
0.000000
 10
38.275000
 20
9.461000
 42
0.000000
 97
0
 75
0
 76
1
 98
1
 10
0.000000
 20
0.000000
  0
TEXT
  5
727
100
AcDbEntity
  8
PINNUMBERS
100
AcDbText
 10
37.988333
 20
9.531000
 11
38.200000
 21
9.531000
 40
0.635000
 41
0.878740
 50
270.000000
  7
STANDARD
 71
0
 72
2
  1
68
100
AcDbText
 73
0
  0
HATCH
  5
72d
100
AcDbEntity
  8
ETCH
100
AcDbHatch
 10
0.000000
 20
0.000000
 30
0.000000
210
0.000000
220
0.000000
230
1.000000
  2
SOLID
 70
1
 71
0
 91
1
 92
2
 72
1
 73
1
 93
4
 10
37.475000
 20
4.889000
 42
0.000000
 10
37.925000
 20
4.889000
 42
0.000000
 10
37.925000
 20
3.289000
 42
0.000000
 10
37.475000
 20
3.289000
 42
0.000000
 97
0
 75
0
 76
1
 98
1
 10
0.000000
 20
0.000000
  0
TEXT
  5
72e
100
AcDbEntity
  8
PINNUMBERS
100
AcDbText
 10
37.088333
 20
3.359000
 11
37.300000
 21
3.359000
 40
0.635000
 41
0.878740
 50
270.000000
  7
STANDARD
 71
0
 72
2
  1
69
100
AcDbText
 73
0
  0
HATCH
  5
734
100
AcDbEntity
  8
ETCH
100
AcDbHatch
 10
0.000000
 20
0.000000
 30
0.000000
210
0.000000
220
0.000000
230
1.000000
  2
SOLID
 70
1
 71
0
 91
1
 92
2
 72
1
 73
1
 93
4
 10
37.475000
 20
11.061000
 42
0.000000
 10
37.925000
 20
11.061000
 42
0.000000
 10
37.925000
 20
9.461000
 42
0.000000
 10
37.475000
 20
9.461000
 42
0.000000
 97
0
 75
0
 76
1
 98
1
 10
0.000000
 20
0.000000
  0
TEXT
  5
735
100
AcDbEntity
  8
PINNUMBERS
100
AcDbText
 10
37.188333
 20
9.531000
 11
37.400000
 21
9.531000
 40
0.635000
 41
0.878740
 50
270.000000
  7
STANDARD
 71
0
 72
2
  1
70
100
AcDbText
 73
0
  0
HATCH
  5
73b
100
AcDbEntity
  8
ETCH
100
AcDbHatch
 10
0.000000
 20
0.000000
 30
0.000000
210
0.000000
220
0.000000
230
1.000000
  2
SOLID
 70
1
 71
0
 91
1
 92
2
 72
1
 73
1
 93
4
 10
36.675000
 20
4.889000
 42
0.000000
 10
37.125000
 20
4.889000
 42
0.000000
 10
37.125000
 20
3.289000
 42
0.000000
 10
36.675000
 20
3.289000
 42
0.000000
 97
0
 75
0
 76
1
 98
1
 10
0.000000
 20
0.000000
  0
TEXT
  5
73c
100
AcDbEntity
  8
PINNUMBERS
100
AcDbText
 10
36.288333
 20
3.359000
 11
36.500000
 21
3.359000
 40
0.635000
 41
0.878740
 50
270.000000
  7
STANDARD
 71
0
 72
2
  1
71
100
AcDbText
 73
0
  0
HATCH
  5
742
100
AcDbEntity
  8
ETCH
100
AcDbHatch
 10
0.000000
 20
0.000000
 30
0.000000
210
0.000000
220
0.000000
230
1.000000
  2
SOLID
 70
1
 71
0
 91
1
 92
2
 72
1
 73
1
 93
4
 10
36.675000
 20
11.061000
 42
0.000000
 10
37.125000
 20
11.061000
 42
0.000000
 10
37.125000
 20
9.461000
 42
0.000000
 10
36.675000
 20
9.461000
 42
0.000000
 97
0
 75
0
 76
1
 98
1
 10
0.000000
 20
0.000000
  0
TEXT
  5
743
100
AcDbEntity
  8
PINNUMBERS
100
AcDbText
 10
36.388333
 20
9.531000
 11
36.600000
 21
9.531000
 40
0.635000
 41
0.878740
 50
270.000000
  7
STANDARD
 71
0
 72
2
  1
72
100
AcDbText
 73
0
  0
HATCH
  5
749
100
AcDbEntity
  8
ETCH
100
AcDbHatch
 10
0.000000
 20
0.000000
 30
0.000000
210
0.000000
220
0.000000
230
1.000000
  2
SOLID
 70
1
 71
0
 91
1
 92
2
 72
1
 73
1
 93
4
 10
35.875000
 20
4.889000
 42
0.000000
 10
36.325000
 20
4.889000
 42
0.000000
 10
36.325000
 20
3.289000
 42
0.000000
 10
35.875000
 20
3.289000
 42
0.000000
 97
0
 75
0
 76
1
 98
1
 10
0.000000
 20
0.000000
  0
TEXT
  5
74a
100
AcDbEntity
  8
PINNUMBERS
100
AcDbText
 10
35.488333
 20
3.359000
 11
35.700000
 21
3.359000
 40
0.635000
 41
0.878740
 50
270.000000
  7
STANDARD
 71
0
 72
2
  1
73
100
AcDbText
 73
0
  0
HATCH
  5
750
100
AcDbEntity
  8
ETCH
100
AcDbHatch
 10
0.000000
 20
0.000000
 30
0.000000
210
0.000000
220
0.000000
230
1.000000
  2
SOLID
 70
1
 71
0
 91
1
 92
2
 72
1
 73
1
 93
4
 10
35.875000
 20
11.061000
 42
0.000000
 10
36.325000
 20
11.061000
 42
0.000000
 10
36.325000
 20
9.461000
 42
0.000000
 10
35.875000
 20
9.461000
 42
0.000000
 97
0
 75
0
 76
1
 98
1
 10
0.000000
 20
0.000000
  0
TEXT
  5
751
100
AcDbEntity
  8
PINNUMBERS
100
AcDbText
 10
35.588333
 20
9.531000
 11
35.800000
 21
9.531000
 40
0.635000
 41
0.878740
 50
270.000000
  7
STANDARD
 71
0
 72
2
  1
74
100
AcDbText
 73
0
  0
HATCH
  5
757
100
AcDbEntity
  8
ETCH
100
AcDbHatch
 10
0.000000
 20
0.000000
 30
0.000000
210
0.000000
220
0.000000
230
1.000000
  2
SOLID
 70
1
 71
0
 91
1
 92
2
 72
1
 73
1
 93
4
 10
35.075000
 20
4.889000
 42
0.000000
 10
35.525000
 20
4.889000
 42
0.000000
 10
35.525000
 20
3.289000
 42
0.000000
 10
35.075000
 20
3.289000
 42
0.000000
 97
0
 75
0
 76
1
 98
1
 10
0.000000
 20
0.000000
  0
TEXT
  5
758
100
AcDbEntity
  8
PINNUMBERS
100
AcDbText
 10
34.688333
 20
3.359000
 11
34.900000
 21
3.359000
 40
0.635000
 41
0.878740
 50
270.000000
  7
STANDARD
 71
0
 72
2
  1
75
100
AcDbText
 73
0
  0
HATCH
  5
75e
100
AcDbEntity
  8
ETCH
100
AcDbHatch
 10
0.000000
 20
0.000000
 30
0.000000
210
0.000000
220
0.000000
230
1.000000
  2
SOLID
 70
1
 71
0
 91
1
 92
2
 72
1
 73
1
 93
4
 10
35.075000
 20
11.061000
 42
0.000000
 10
35.525000
 20
11.061000
 42
0.000000
 10
35.525000
 20
9.461000
 42
0.000000
 10
35.075000
 20
9.461000
 42
0.000000
 97
0
 75
0
 76
1
 98
1
 10
0.000000
 20
0.000000
  0
TEXT
  5
75f
100
AcDbEntity
  8
PINNUMBERS
100
AcDbText
 10
34.788333
 20
9.531000
 11
35.000000
 21
9.531000
 40
0.635000
 41
0.878740
 50
270.000000
  7
STANDARD
 71
0
 72
2
  1
76
100
AcDbText
 73
0
  0
HATCH
  5
765
100
AcDbEntity
  8
ETCH
100
AcDbHatch
 10
0.000000
 20
0.000000
 30
0.000000
210
0.000000
220
0.000000
230
1.000000
  2
SOLID
 70
1
 71
0
 91
1
 92
2
 72
1
 73
1
 93
4
 10
34.275000
 20
4.889000
 42
0.000000
 10
34.725000
 20
4.889000
 42
0.000000
 10
34.725000
 20
3.289000
 42
0.000000
 10
34.275000
 20
3.289000
 42
0.000000
 97
0
 75
0
 76
1
 98
1
 10
0.000000
 20
0.000000
  0
TEXT
  5
766
100
AcDbEntity
  8
PINNUMBERS
100
AcDbText
 10
33.888333
 20
3.359000
 11
34.100000
 21
3.359000
 40
0.635000
 41
0.878740
 50
270.000000
  7
STANDARD
 71
0
 72
2
  1
77
100
AcDbText
 73
0
  0
HATCH
  5
76c
100
AcDbEntity
  8
ETCH
100
AcDbHatch
 10
0.000000
 20
0.000000
 30
0.000000
210
0.000000
220
0.000000
230
1.000000
  2
SOLID
 70
1
 71
0
 91
1
 92
2
 72
1
 73
1
 93
4
 10
34.275000
 20
11.061000
 42
0.000000
 10
34.725000
 20
11.061000
 42
0.000000
 10
34.725000
 20
9.461000
 42
0.000000
 10
34.275000
 20
9.461000
 42
0.000000
 97
0
 75
0
 76
1
 98
1
 10
0.000000
 20
0.000000
  0
TEXT
  5
76d
100
AcDbEntity
  8
PINNUMBERS
100
AcDbText
 10
33.988333
 20
9.531000
 11
34.200000
 21
9.531000
 40
0.635000
 41
0.878740
 50
270.000000
  7
STANDARD
 71
0
 72
2
  1
78
100
AcDbText
 73
0
  0
HATCH
  5
773
100
AcDbEntity
  8
ETCH
100
AcDbHatch
 10
0.000000
 20
0.000000
 30
0.000000
210
0.000000
220
0.000000
230
1.000000
  2
SOLID
 70
1
 71
0
 91
1
 92
2
 72
1
 73
1
 93
4
 10
33.475000
 20
4.889000
 42
0.000000
 10
33.925000
 20
4.889000
 42
0.000000
 10
33.925000
 20
3.289000
 42
0.000000
 10
33.475000
 20
3.289000
 42
0.000000
 97
0
 75
0
 76
1
 98
1
 10
0.000000
 20
0.000000
  0
TEXT
  5
774
100
AcDbEntity
  8
PINNUMBERS
100
AcDbText
 10
33.088333
 20
3.359000
 11
33.300000
 21
3.359000
 40
0.635000
 41
0.878740
 50
270.000000
  7
STANDARD
 71
0
 72
2
  1
79
100
AcDbText
 73
0
  0
HATCH
  5
77a
100
AcDbEntity
  8
ETCH
100
AcDbHatch
 10
0.000000
 20
0.000000
 30
0.000000
210
0.000000
220
0.000000
230
1.000000
  2
SOLID
 70
1
 71
0
 91
1
 92
2
 72
1
 73
1
 93
4
 10
33.475000
 20
11.061000
 42
0.000000
 10
33.925000
 20
11.061000
 42
0.000000
 10
33.925000
 20
9.461000
 42
0.000000
 10
33.475000
 20
9.461000
 42
0.000000
 97
0
 75
0
 76
1
 98
1
 10
0.000000
 20
0.000000
  0
TEXT
  5
77b
100
AcDbEntity
  8
PINNUMBERS
100
AcDbText
 10
33.188333
 20
9.531000
 11
33.400000
 21
9.531000
 40
0.635000
 41
0.878740
 50
270.000000
  7
STANDARD
 71
0
 72
2
  1
80
100
AcDbText
 73
0
  0
HATCH
  5
781
100
AcDbEntity
  8
ETCH
100
AcDbHatch
 10
0.000000
 20
0.000000
 30
0.000000
210
0.000000
220
0.000000
230
1.000000
  2
SOLID
 70
1
 71
0
 91
1
 92
2
 72
1
 73
1
 93
4
 10
28.675000
 20
4.889000
 42
0.000000
 10
29.125000
 20
4.889000
 42
0.000000
 10
29.125000
 20
3.289000
 42
0.000000
 10
28.675000
 20
3.289000
 42
0.000000
 97
0
 75
0
 76
1
 98
1
 10
0.000000
 20
0.000000
  0
TEXT
  5
782
100
AcDbEntity
  8
PINNUMBERS
100
AcDbText
 10
28.288333
 20
3.359000
 11
28.500000
 21
3.359000
 40
0.635000
 41
0.878740
 50
270.000000
  7
STANDARD
 71
0
 72
2
  1
81
100
AcDbText
 73
0
  0
HATCH
  5
788
100
AcDbEntity
  8
ETCH
100
AcDbHatch
 10
0.000000
 20
0.000000
 30
0.000000
210
0.000000
220
0.000000
230
1.000000
  2
SOLID
 70
1
 71
0
 91
1
 92
2
 72
1
 73
1
 93
4
 10
28.675000
 20
11.061000
 42
0.000000
 10
29.125000
 20
11.061000
 42
0.000000
 10
29.125000
 20
9.461000
 42
0.000000
 10
28.675000
 20
9.461000
 42
0.000000
 97
0
 75
0
 76
1
 98
1
 10
0.000000
 20
0.000000
  0
TEXT
  5
789
100
AcDbEntity
  8
PINNUMBERS
100
AcDbText
 10
28.388333
 20
9.531000
 11
28.600000
 21
9.531000
 40
0.635000
 41
0.878740
 50
270.000000
  7
STANDARD
 71
0
 72
2
  1
82
100
AcDbText
 73
0
  0
HATCH
  5
78f
100
AcDbEntity
  8
ETCH
100
AcDbHatch
 10
0.000000
 20
0.000000
 30
0.000000
210
0.000000
220
0.000000
230
1.000000
  2
SOLID
 70
1
 71
0
 91
1
 92
2
 72
1
 73
1
 93
4
 10
27.875000
 20
4.889000
 42
0.000000
 10
28.325000
 20
4.889000
 42
0.000000
 10
28.325000
 20
3.289000
 42
0.000000
 10
27.875000
 20
3.289000
 42
0.000000
 97
0
 75
0
 76
1
 98
1
 10
0.000000
 20
0.000000
  0
TEXT
  5
790
100
AcDbEntity
  8
PINNUMBERS
100
AcDbText
 10
27.488333
 20
3.359000
 11
27.700000
 21
3.359000
 40
0.635000
 41
0.878740
 50
270.000000
  7
STANDARD
 71
0
 72
2
  1
83
100
AcDbText
 73
0
  0
HATCH
  5
796
100
AcDbEntity
  8
ETCH
100
AcDbHatch
 10
0.000000
 20
0.000000
 30
0.000000
210
0.000000
220
0.000000
230
1.000000
  2
SOLID
 70
1
 71
0
 91
1
 92
2
 72
1
 73
1
 93
4
 10
27.875000
 20
11.061000
 42
0.000000
 10
28.325000
 20
11.061000
 42
0.000000
 10
28.325000
 20
9.461000
 42
0.000000
 10
27.875000
 20
9.461000
 42
0.000000
 97
0
 75
0
 76
1
 98
1
 10
0.000000
 20
0.000000
  0
TEXT
  5
797
100
AcDbEntity
  8
PINNUMBERS
100
AcDbText
 10
27.588333
 20
9.531000
 11
27.800000
 21
9.531000
 40
0.635000
 41
0.878740
 50
270.000000
  7
STANDARD
 71
0
 72
2
  1
84
100
AcDbText
 73
0
  0
HATCH
  5
79d
100
AcDbEntity
  8
ETCH
100
AcDbHatch
 10
0.000000
 20
0.000000
 30
0.000000
210
0.000000
220
0.000000
230
1.000000
  2
SOLID
 70
1
 71
0
 91
1
 92
2
 72
1
 73
1
 93
4
 10
27.075000
 20
4.889000
 42
0.000000
 10
27.525000
 20
4.889000
 42
0.000000
 10
27.525000
 20
3.289000
 42
0.000000
 10
27.075000
 20
3.289000
 42
0.000000
 97
0
 75
0
 76
1
 98
1
 10
0.000000
 20
0.000000
  0
TEXT
  5
79e
100
AcDbEntity
  8
PINNUMBERS
100
AcDbText
 10
26.688333
 20
3.359000
 11
26.900000
 21
3.359000
 40
0.635000
 41
0.878740
 50
270.000000
  7
STANDARD
 71
0
 72
2
  1
85
100
AcDbText
 73
0
  0
HATCH
  5
7a4
100
AcDbEntity
  8
ETCH
100
AcDbHatch
 10
0.000000
 20
0.000000
 30
0.000000
210
0.000000
220
0.000000
230
1.000000
  2
SOLID
 70
1
 71
0
 91
1
 92
2
 72
1
 73
1
 93
4
 10
27.075000
 20
11.061000
 42
0.000000
 10
27.525000
 20
11.061000
 42
0.000000
 10
27.525000
 20
9.461000
 42
0.000000
 10
27.075000
 20
9.461000
 42
0.000000
 97
0
 75
0
 76
1
 98
1
 10
0.000000
 20
0.000000
  0
TEXT
  5
7a5
100
AcDbEntity
  8
PINNUMBERS
100
AcDbText
 10
26.788333
 20
9.531000
 11
27.000000
 21
9.531000
 40
0.635000
 41
0.878740
 50
270.000000
  7
STANDARD
 71
0
 72
2
  1
86
100
AcDbText
 73
0
  0
HATCH
  5
7ab
100
AcDbEntity
  8
ETCH
100
AcDbHatch
 10
0.000000
 20
0.000000
 30
0.000000
210
0.000000
220
0.000000
230
1.000000
  2
SOLID
 70
1
 71
0
 91
1
 92
2
 72
1
 73
1
 93
4
 10
26.275000
 20
4.889000
 42
0.000000
 10
26.725000
 20
4.889000
 42
0.000000
 10
26.725000
 20
3.289000
 42
0.000000
 10
26.275000
 20
3.289000
 42
0.000000
 97
0
 75
0
 76
1
 98
1
 10
0.000000
 20
0.000000
  0
TEXT
  5
7ac
100
AcDbEntity
  8
PINNUMBERS
100
AcDbText
 10
25.888333
 20
3.359000
 11
26.100000
 21
3.359000
 40
0.635000
 41
0.878740
 50
270.000000
  7
STANDARD
 71
0
 72
2
  1
87
100
AcDbText
 73
0
  0
HATCH
  5
7b2
100
AcDbEntity
  8
ETCH
100
AcDbHatch
 10
0.000000
 20
0.000000
 30
0.000000
210
0.000000
220
0.000000
230
1.000000
  2
SOLID
 70
1
 71
0
 91
1
 92
2
 72
1
 73
1
 93
4
 10
26.275000
 20
11.061000
 42
0.000000
 10
26.725000
 20
11.061000
 42
0.000000
 10
26.725000
 20
9.461000
 42
0.000000
 10
26.275000
 20
9.461000
 42
0.000000
 97
0
 75
0
 76
1
 98
1
 10
0.000000
 20
0.000000
  0
TEXT
  5
7b3
100
AcDbEntity
  8
PINNUMBERS
100
AcDbText
 10
25.988333
 20
9.531000
 11
26.200000
 21
9.531000
 40
0.635000
 41
0.878740
 50
270.000000
  7
STANDARD
 71
0
 72
2
  1
88
100
AcDbText
 73
0
  0
HATCH
  5
7b9
100
AcDbEntity
  8
ETCH
100
AcDbHatch
 10
0.000000
 20
0.000000
 30
0.000000
210
0.000000
220
0.000000
230
1.000000
  2
SOLID
 70
1
 71
0
 91
1
 92
2
 72
1
 73
1
 93
4
 10
25.475000
 20
4.889000
 42
0.000000
 10
25.925000
 20
4.889000
 42
0.000000
 10
25.925000
 20
3.289000
 42
0.000000
 10
25.475000
 20
3.289000
 42
0.000000
 97
0
 75
0
 76
1
 98
1
 10
0.000000
 20
0.000000
  0
TEXT
  5
7ba
100
AcDbEntity
  8
PINNUMBERS
100
AcDbText
 10
25.088333
 20
3.359000
 11
25.300000
 21
3.359000
 40
0.635000
 41
0.878740
 50
270.000000
  7
STANDARD
 71
0
 72
2
  1
89
100
AcDbText
 73
0
  0
HATCH
  5
7c0
100
AcDbEntity
  8
ETCH
100
AcDbHatch
 10
0.000000
 20
0.000000
 30
0.000000
210
0.000000
220
0.000000
230
1.000000
  2
SOLID
 70
1
 71
0
 91
1
 92
2
 72
1
 73
1
 93
4
 10
25.475000
 20
11.061000
 42
0.000000
 10
25.925000
 20
11.061000
 42
0.000000
 10
25.925000
 20
9.461000
 42
0.000000
 10
25.475000
 20
9.461000
 42
0.000000
 97
0
 75
0
 76
1
 98
1
 10
0.000000
 20
0.000000
  0
TEXT
  5
7c1
100
AcDbEntity
  8
PINNUMBERS
100
AcDbText
 10
25.188333
 20
9.531000
 11
25.400000
 21
9.531000
 40
0.635000
 41
0.878740
 50
270.000000
  7
STANDARD
 71
0
 72
2
  1
90
100
AcDbText
 73
0
  0
HATCH
  5
7c7
100
AcDbEntity
  8
ETCH
100
AcDbHatch
 10
0.000000
 20
0.000000
 30
0.000000
210
0.000000
220
0.000000
230
1.000000
  2
SOLID
 70
1
 71
0
 91
1
 92
2
 72
1
 73
1
 93
4
 10
24.675000
 20
4.889000
 42
0.000000
 10
25.125000
 20
4.889000
 42
0.000000
 10
25.125000
 20
3.289000
 42
0.000000
 10
24.675000
 20
3.289000
 42
0.000000
 97
0
 75
0
 76
1
 98
1
 10
0.000000
 20
0.000000
  0
TEXT
  5
7c8
100
AcDbEntity
  8
PINNUMBERS
100
AcDbText
 10
24.288333
 20
3.359000
 11
24.500000
 21
3.359000
 40
0.635000
 41
0.878740
 50
270.000000
  7
STANDARD
 71
0
 72
2
  1
91
100
AcDbText
 73
0
  0
HATCH
  5
7ce
100
AcDbEntity
  8
ETCH
100
AcDbHatch
 10
0.000000
 20
0.000000
 30
0.000000
210
0.000000
220
0.000000
230
1.000000
  2
SOLID
 70
1
 71
0
 91
1
 92
2
 72
1
 73
1
 93
4
 10
24.675000
 20
11.061000
 42
0.000000
 10
25.125000
 20
11.061000
 42
0.000000
 10
25.125000
 20
9.461000
 42
0.000000
 10
24.675000
 20
9.461000
 42
0.000000
 97
0
 75
0
 76
1
 98
1
 10
0.000000
 20
0.000000
  0
TEXT
  5
7cf
100
AcDbEntity
  8
PINNUMBERS
100
AcDbText
 10
24.388333
 20
9.531000
 11
24.600000
 21
9.531000
 40
0.635000
 41
0.878740
 50
270.000000
  7
STANDARD
 71
0
 72
2
  1
92
100
AcDbText
 73
0
  0
HATCH
  5
7d5
100
AcDbEntity
  8
ETCH
100
AcDbHatch
 10
0.000000
 20
0.000000
 30
0.000000
210
0.000000
220
0.000000
230
1.000000
  2
SOLID
 70
1
 71
0
 91
1
 92
2
 72
1
 73
1
 93
4
 10
23.875000
 20
4.889000
 42
0.000000
 10
24.325000
 20
4.889000
 42
0.000000
 10
24.325000
 20
3.289000
 42
0.000000
 10
23.875000
 20
3.289000
 42
0.000000
 97
0
 75
0
 76
1
 98
1
 10
0.000000
 20
0.000000
  0
TEXT
  5
7d6
100
AcDbEntity
  8
PINNUMBERS
100
AcDbText
 10
23.488333
 20
3.359000
 11
23.700000
 21
3.359000
 40
0.635000
 41
0.878740
 50
270.000000
  7
STANDARD
 71
0
 72
2
  1
93
100
AcDbText
 73
0
  0
HATCH
  5
7dc
100
AcDbEntity
  8
ETCH
100
AcDbHatch
 10
0.000000
 20
0.000000
 30
0.000000
210
0.000000
220
0.000000
230
1.000000
  2
SOLID
 70
1
 71
0
 91
1
 92
2
 72
1
 73
1
 93
4
 10
23.875000
 20
11.061000
 42
0.000000
 10
24.325000
 20
11.061000
 42
0.000000
 10
24.325000
 20
9.461000
 42
0.000000
 10
23.875000
 20
9.461000
 42
0.000000
 97
0
 75
0
 76
1
 98
1
 10
0.000000
 20
0.000000
  0
TEXT
  5
7dd
100
AcDbEntity
  8
PINNUMBERS
100
AcDbText
 10
23.588333
 20
9.531000
 11
23.800000
 21
9.531000
 40
0.635000
 41
0.878740
 50
270.000000
  7
STANDARD
 71
0
 72
2
  1
94
100
AcDbText
 73
0
  0
HATCH
  5
7e3
100
AcDbEntity
  8
ETCH
100
AcDbHatch
 10
0.000000
 20
0.000000
 30
0.000000
210
0.000000
220
0.000000
230
1.000000
  2
SOLID
 70
1
 71
0
 91
1
 92
2
 72
1
 73
1
 93
4
 10
23.075000
 20
4.889000
 42
0.000000
 10
23.525000
 20
4.889000
 42
0.000000
 10
23.525000
 20
3.289000
 42
0.000000
 10
23.075000
 20
3.289000
 42
0.000000
 97
0
 75
0
 76
1
 98
1
 10
0.000000
 20
0.000000
  0
TEXT
  5
7e4
100
AcDbEntity
  8
PINNUMBERS
100
AcDbText
 10
22.688333
 20
3.359000
 11
22.900000
 21
3.359000
 40
0.635000
 41
0.878740
 50
270.000000
  7
STANDARD
 71
0
 72
2
  1
95
100
AcDbText
 73
0
  0
HATCH
  5
7ea
100
AcDbEntity
  8
ETCH
100
AcDbHatch
 10
0.000000
 20
0.000000
 30
0.000000
210
0.000000
220
0.000000
230
1.000000
  2
SOLID
 70
1
 71
0
 91
1
 92
2
 72
1
 73
1
 93
4
 10
23.075000
 20
11.061000
 42
0.000000
 10
23.525000
 20
11.061000
 42
0.000000
 10
23.525000
 20
9.461000
 42
0.000000
 10
23.075000
 20
9.461000
 42
0.000000
 97
0
 75
0
 76
1
 98
1
 10
0.000000
 20
0.000000
  0
TEXT
  5
7eb
100
AcDbEntity
  8
PINNUMBERS
100
AcDbText
 10
22.788333
 20
9.531000
 11
23.000000
 21
9.531000
 40
0.635000
 41
0.878740
 50
270.000000
  7
STANDARD
 71
0
 72
2
  1
96
100
AcDbText
 73
0
  0
HATCH
  5
7f1
100
AcDbEntity
  8
ETCH
100
AcDbHatch
 10
0.000000
 20
0.000000
 30
0.000000
210
0.000000
220
0.000000
230
1.000000
  2
SOLID
 70
1
 71
0
 91
1
 92
2
 72
1
 73
1
 93
4
 10
22.275000
 20
4.889000
 42
0.000000
 10
22.725000
 20
4.889000
 42
0.000000
 10
22.725000
 20
3.289000
 42
0.000000
 10
22.275000
 20
3.289000
 42
0.000000
 97
0
 75
0
 76
1
 98
1
 10
0.000000
 20
0.000000
  0
TEXT
  5
7f2
100
AcDbEntity
  8
PINNUMBERS
100
AcDbText
 10
21.888333
 20
3.359000
 11
22.100000
 21
3.359000
 40
0.635000
 41
0.878740
 50
270.000000
  7
STANDARD
 71
0
 72
2
  1
97
100
AcDbText
 73
0
  0
HATCH
  5
7f8
100
AcDbEntity
  8
ETCH
100
AcDbHatch
 10
0.000000
 20
0.000000
 30
0.000000
210
0.000000
220
0.000000
230
1.000000
  2
SOLID
 70
1
 71
0
 91
1
 92
2
 72
1
 73
1
 93
4
 10
22.275000
 20
11.061000
 42
0.000000
 10
22.725000
 20
11.061000
 42
0.000000
 10
22.725000
 20
9.461000
 42
0.000000
 10
22.275000
 20
9.461000
 42
0.000000
 97
0
 75
0
 76
1
 98
1
 10
0.000000
 20
0.000000
  0
TEXT
  5
7f9
100
AcDbEntity
  8
PINNUMBERS
100
AcDbText
 10
21.988333
 20
9.531000
 11
22.200000
 21
9.531000
 40
0.635000
 41
0.878740
 50
270.000000
  7
STANDARD
 71
0
 72
2
  1
98
100
AcDbText
 73
0
  0
HATCH
  5
7ff
100
AcDbEntity
  8
ETCH
100
AcDbHatch
 10
0.000000
 20
0.000000
 30
0.000000
210
0.000000
220
0.000000
230
1.000000
  2
SOLID
 70
1
 71
0
 91
1
 92
2
 72
1
 73
1
 93
4
 10
21.475000
 20
4.889000
 42
0.000000
 10
21.925000
 20
4.889000
 42
0.000000
 10
21.925000
 20
3.289000
 42
0.000000
 10
21.475000
 20
3.289000
 42
0.000000
 97
0
 75
0
 76
1
 98
1
 10
0.000000
 20
0.000000
  0
TEXT
  5
800
100
AcDbEntity
  8
PINNUMBERS
100
AcDbText
 10
21.088333
 20
3.359000
 11
21.300000
 21
3.359000
 40
0.635000
 41
0.878740
 50
270.000000
  7
STANDARD
 71
0
 72
2
  1
99
100
AcDbText
 73
0
  0
HATCH
  5
806
100
AcDbEntity
  8
ETCH
100
AcDbHatch
 10
0.000000
 20
0.000000
 30
0.000000
210
0.000000
220
0.000000
230
1.000000
  2
SOLID
 70
1
 71
0
 91
1
 92
2
 72
1
 73
1
 93
4
 10
21.475000
 20
11.061000
 42
0.000000
 10
21.925000
 20
11.061000
 42
0.000000
 10
21.925000
 20
9.461000
 42
0.000000
 10
21.475000
 20
9.461000
 42
0.000000
 97
0
 75
0
 76
1
 98
1
 10
0.000000
 20
0.000000
  0
TEXT
  5
807
100
AcDbEntity
  8
PINNUMBERS
100
AcDbText
 10
21.188333
 20
9.531000
 11
21.400000
 21
9.531000
 40
0.635000
 41
0.878740
 50
270.000000
  7
STANDARD
 71
0
 72
2
  1
100
100
AcDbText
 73
0
  0
HATCH
  5
80d
100
AcDbEntity
  8
ETCH
100
AcDbHatch
 10
0.000000
 20
0.000000
 30
0.000000
210
0.000000
220
0.000000
230
1.000000
  2
SOLID
 70
1
 71
0
 91
1
 92
2
 72
1
 73
1
 93
4
 10
20.675000
 20
4.889000
 42
0.000000
 10
21.125000
 20
4.889000
 42
0.000000
 10
21.125000
 20
3.289000
 42
0.000000
 10
20.675000
 20
3.289000
 42
0.000000
 97
0
 75
0
 76
1
 98
1
 10
0.000000
 20
0.000000
  0
TEXT
  5
80e
100
AcDbEntity
  8
PINNUMBERS
100
AcDbText
 10
20.288333
 20
3.359000
 11
20.500000
 21
3.359000
 40
0.635000
 41
0.878740
 50
270.000000
  7
STANDARD
 71
0
 72
2
  1
101
100
AcDbText
 73
0
  0
HATCH
  5
814
100
AcDbEntity
  8
ETCH
100
AcDbHatch
 10
0.000000
 20
0.000000
 30
0.000000
210
0.000000
220
0.000000
230
1.000000
  2
SOLID
 70
1
 71
0
 91
1
 92
2
 72
1
 73
1
 93
4
 10
20.675000
 20
11.061000
 42
0.000000
 10
21.125000
 20
11.061000
 42
0.000000
 10
21.125000
 20
9.461000
 42
0.000000
 10
20.675000
 20
9.461000
 42
0.000000
 97
0
 75
0
 76
1
 98
1
 10
0.000000
 20
0.000000
  0
TEXT
  5
815
100
AcDbEntity
  8
PINNUMBERS
100
AcDbText
 10
20.388333
 20
9.531000
 11
20.600000
 21
9.531000
 40
0.635000
 41
0.878740
 50
270.000000
  7
STANDARD
 71
0
 72
2
  1
102
100
AcDbText
 73
0
  0
HATCH
  5
81b
100
AcDbEntity
  8
ETCH
100
AcDbHatch
 10
0.000000
 20
0.000000
 30
0.000000
210
0.000000
220
0.000000
230
1.000000
  2
SOLID
 70
1
 71
0
 91
1
 92
2
 72
1
 73
1
 93
4
 10
19.875000
 20
4.889000
 42
0.000000
 10
20.325000
 20
4.889000
 42
0.000000
 10
20.325000
 20
3.289000
 42
0.000000
 10
19.875000
 20
3.289000
 42
0.000000
 97
0
 75
0
 76
1
 98
1
 10
0.000000
 20
0.000000
  0
TEXT
  5
81c
100
AcDbEntity
  8
PINNUMBERS
100
AcDbText
 10
19.488333
 20
3.359000
 11
19.700000
 21
3.359000
 40
0.635000
 41
0.878740
 50
270.000000
  7
STANDARD
 71
0
 72
2
  1
103
100
AcDbText
 73
0
  0
HATCH
  5
822
100
AcDbEntity
  8
ETCH
100
AcDbHatch
 10
0.000000
 20
0.000000
 30
0.000000
210
0.000000
220
0.000000
230
1.000000
  2
SOLID
 70
1
 71
0
 91
1
 92
2
 72
1
 73
1
 93
4
 10
19.875000
 20
11.061000
 42
0.000000
 10
20.325000
 20
11.061000
 42
0.000000
 10
20.325000
 20
9.461000
 42
0.000000
 10
19.875000
 20
9.461000
 42
0.000000
 97
0
 75
0
 76
1
 98
1
 10
0.000000
 20
0.000000
  0
TEXT
  5
823
100
AcDbEntity
  8
PINNUMBERS
100
AcDbText
 10
19.588333
 20
9.531000
 11
19.800000
 21
9.531000
 40
0.635000
 41
0.878740
 50
270.000000
  7
STANDARD
 71
0
 72
2
  1
104
100
AcDbText
 73
0
  0
HATCH
  5
829
100
AcDbEntity
  8
ETCH
100
AcDbHatch
 10
0.000000
 20
0.000000
 30
0.000000
210
0.000000
220
0.000000
230
1.000000
  2
SOLID
 70
1
 71
0
 91
1
 92
2
 72
1
 73
1
 93
4
 10
19.075000
 20
4.889000
 42
0.000000
 10
19.525000
 20
4.889000
 42
0.000000
 10
19.525000
 20
3.289000
 42
0.000000
 10
19.075000
 20
3.289000
 42
0.000000
 97
0
 75
0
 76
1
 98
1
 10
0.000000
 20
0.000000
  0
TEXT
  5
82a
100
AcDbEntity
  8
PINNUMBERS
100
AcDbText
 10
18.688333
 20
3.359000
 11
18.900000
 21
3.359000
 40
0.635000
 41
0.878740
 50
270.000000
  7
STANDARD
 71
0
 72
2
  1
105
100
AcDbText
 73
0
  0
HATCH
  5
830
100
AcDbEntity
  8
ETCH
100
AcDbHatch
 10
0.000000
 20
0.000000
 30
0.000000
210
0.000000
220
0.000000
230
1.000000
  2
SOLID
 70
1
 71
0
 91
1
 92
2
 72
1
 73
1
 93
4
 10
19.075000
 20
11.061000
 42
0.000000
 10
19.525000
 20
11.061000
 42
0.000000
 10
19.525000
 20
9.461000
 42
0.000000
 10
19.075000
 20
9.461000
 42
0.000000
 97
0
 75
0
 76
1
 98
1
 10
0.000000
 20
0.000000
  0
TEXT
  5
831
100
AcDbEntity
  8
PINNUMBERS
100
AcDbText
 10
18.788333
 20
9.531000
 11
19.000000
 21
9.531000
 40
0.635000
 41
0.878740
 50
270.000000
  7
STANDARD
 71
0
 72
2
  1
106
100
AcDbText
 73
0
  0
HATCH
  5
837
100
AcDbEntity
  8
ETCH
100
AcDbHatch
 10
0.000000
 20
0.000000
 30
0.000000
210
0.000000
220
0.000000
230
1.000000
  2
SOLID
 70
1
 71
0
 91
1
 92
2
 72
1
 73
1
 93
4
 10
18.275000
 20
4.889000
 42
0.000000
 10
18.725000
 20
4.889000
 42
0.000000
 10
18.725000
 20
3.289000
 42
0.000000
 10
18.275000
 20
3.289000
 42
0.000000
 97
0
 75
0
 76
1
 98
1
 10
0.000000
 20
0.000000
  0
TEXT
  5
838
100
AcDbEntity
  8
PINNUMBERS
100
AcDbText
 10
17.888333
 20
3.359000
 11
18.100000
 21
3.359000
 40
0.635000
 41
0.878740
 50
270.000000
  7
STANDARD
 71
0
 72
2
  1
107
100
AcDbText
 73
0
  0
HATCH
  5
83e
100
AcDbEntity
  8
ETCH
100
AcDbHatch
 10
0.000000
 20
0.000000
 30
0.000000
210
0.000000
220
0.000000
230
1.000000
  2
SOLID
 70
1
 71
0
 91
1
 92
2
 72
1
 73
1
 93
4
 10
18.275000
 20
11.061000
 42
0.000000
 10
18.725000
 20
11.061000
 42
0.000000
 10
18.725000
 20
9.461000
 42
0.000000
 10
18.275000
 20
9.461000
 42
0.000000
 97
0
 75
0
 76
1
 98
1
 10
0.000000
 20
0.000000
  0
TEXT
  5
83f
100
AcDbEntity
  8
PINNUMBERS
100
AcDbText
 10
17.988333
 20
9.531000
 11
18.200000
 21
9.531000
 40
0.635000
 41
0.878740
 50
270.000000
  7
STANDARD
 71
0
 72
2
  1
108
100
AcDbText
 73
0
  0
HATCH
  5
845
100
AcDbEntity
  8
ETCH
100
AcDbHatch
 10
0.000000
 20
0.000000
 30
0.000000
210
0.000000
220
0.000000
230
1.000000
  2
SOLID
 70
1
 71
0
 91
1
 92
2
 72
1
 73
1
 93
4
 10
17.475000
 20
4.889000
 42
0.000000
 10
17.925000
 20
4.889000
 42
0.000000
 10
17.925000
 20
3.289000
 42
0.000000
 10
17.475000
 20
3.289000
 42
0.000000
 97
0
 75
0
 76
1
 98
1
 10
0.000000
 20
0.000000
  0
TEXT
  5
846
100
AcDbEntity
  8
PINNUMBERS
100
AcDbText
 10
17.088333
 20
3.359000
 11
17.300000
 21
3.359000
 40
0.635000
 41
0.878740
 50
270.000000
  7
STANDARD
 71
0
 72
2
  1
109
100
AcDbText
 73
0
  0
HATCH
  5
84c
100
AcDbEntity
  8
ETCH
100
AcDbHatch
 10
0.000000
 20
0.000000
 30
0.000000
210
0.000000
220
0.000000
230
1.000000
  2
SOLID
 70
1
 71
0
 91
1
 92
2
 72
1
 73
1
 93
4
 10
17.475000
 20
11.061000
 42
0.000000
 10
17.925000
 20
11.061000
 42
0.000000
 10
17.925000
 20
9.461000
 42
0.000000
 10
17.475000
 20
9.461000
 42
0.000000
 97
0
 75
0
 76
1
 98
1
 10
0.000000
 20
0.000000
  0
TEXT
  5
84d
100
AcDbEntity
  8
PINNUMBERS
100
AcDbText
 10
17.188333
 20
9.531000
 11
17.400000
 21
9.531000
 40
0.635000
 41
0.878740
 50
270.000000
  7
STANDARD
 71
0
 72
2
  1
110
100
AcDbText
 73
0
  0
HATCH
  5
853
100
AcDbEntity
  8
ETCH
100
AcDbHatch
 10
0.000000
 20
0.000000
 30
0.000000
210
0.000000
220
0.000000
230
1.000000
  2
SOLID
 70
1
 71
0
 91
1
 92
2
 72
1
 73
1
 93
4
 10
16.675000
 20
4.889000
 42
0.000000
 10
17.125000
 20
4.889000
 42
0.000000
 10
17.125000
 20
3.289000
 42
0.000000
 10
16.675000
 20
3.289000
 42
0.000000
 97
0
 75
0
 76
1
 98
1
 10
0.000000
 20
0.000000
  0
TEXT
  5
854
100
AcDbEntity
  8
PINNUMBERS
100
AcDbText
 10
16.288333
 20
3.359000
 11
16.500000
 21
3.359000
 40
0.635000
 41
0.878740
 50
270.000000
  7
STANDARD
 71
0
 72
2
  1
111
100
AcDbText
 73
0
  0
HATCH
  5
85a
100
AcDbEntity
  8
ETCH
100
AcDbHatch
 10
0.000000
 20
0.000000
 30
0.000000
210
0.000000
220
0.000000
230
1.000000
  2
SOLID
 70
1
 71
0
 91
1
 92
2
 72
1
 73
1
 93
4
 10
16.675000
 20
11.061000
 42
0.000000
 10
17.125000
 20
11.061000
 42
0.000000
 10
17.125000
 20
9.461000
 42
0.000000
 10
16.675000
 20
9.461000
 42
0.000000
 97
0
 75
0
 76
1
 98
1
 10
0.000000
 20
0.000000
  0
TEXT
  5
85b
100
AcDbEntity
  8
PINNUMBERS
100
AcDbText
 10
16.388333
 20
9.531000
 11
16.600000
 21
9.531000
 40
0.635000
 41
0.878740
 50
270.000000
  7
STANDARD
 71
0
 72
2
  1
112
100
AcDbText
 73
0
  0
HATCH
  5
861
100
AcDbEntity
  8
ETCH
100
AcDbHatch
 10
0.000000
 20
0.000000
 30
0.000000
210
0.000000
220
0.000000
230
1.000000
  2
SOLID
 70
1
 71
0
 91
1
 92
2
 72
1
 73
1
 93
4
 10
15.875000
 20
4.889000
 42
0.000000
 10
16.325000
 20
4.889000
 42
0.000000
 10
16.325000
 20
3.289000
 42
0.000000
 10
15.875000
 20
3.289000
 42
0.000000
 97
0
 75
0
 76
1
 98
1
 10
0.000000
 20
0.000000
  0
TEXT
  5
862
100
AcDbEntity
  8
PINNUMBERS
100
AcDbText
 10
15.488333
 20
3.359000
 11
15.700000
 21
3.359000
 40
0.635000
 41
0.878740
 50
270.000000
  7
STANDARD
 71
0
 72
2
  1
113
100
AcDbText
 73
0
  0
HATCH
  5
868
100
AcDbEntity
  8
ETCH
100
AcDbHatch
 10
0.000000
 20
0.000000
 30
0.000000
210
0.000000
220
0.000000
230
1.000000
  2
SOLID
 70
1
 71
0
 91
1
 92
2
 72
1
 73
1
 93
4
 10
15.875000
 20
11.061000
 42
0.000000
 10
16.325000
 20
11.061000
 42
0.000000
 10
16.325000
 20
9.461000
 42
0.000000
 10
15.875000
 20
9.461000
 42
0.000000
 97
0
 75
0
 76
1
 98
1
 10
0.000000
 20
0.000000
  0
TEXT
  5
869
100
AcDbEntity
  8
PINNUMBERS
100
AcDbText
 10
15.588333
 20
9.531000
 11
15.800000
 21
9.531000
 40
0.635000
 41
0.878740
 50
270.000000
  7
STANDARD
 71
0
 72
2
  1
114
100
AcDbText
 73
0
  0
HATCH
  5
86f
100
AcDbEntity
  8
ETCH
100
AcDbHatch
 10
0.000000
 20
0.000000
 30
0.000000
210
0.000000
220
0.000000
230
1.000000
  2
SOLID
 70
1
 71
0
 91
1
 92
2
 72
1
 73
1
 93
4
 10
15.075000
 20
4.889000
 42
0.000000
 10
15.525000
 20
4.889000
 42
0.000000
 10
15.525000
 20
3.289000
 42
0.000000
 10
15.075000
 20
3.289000
 42
0.000000
 97
0
 75
0
 76
1
 98
1
 10
0.000000
 20
0.000000
  0
TEXT
  5
870
100
AcDbEntity
  8
PINNUMBERS
100
AcDbText
 10
14.688333
 20
3.359000
 11
14.900000
 21
3.359000
 40
0.635000
 41
0.878740
 50
270.000000
  7
STANDARD
 71
0
 72
2
  1
115
100
AcDbText
 73
0
  0
HATCH
  5
876
100
AcDbEntity
  8
ETCH
100
AcDbHatch
 10
0.000000
 20
0.000000
 30
0.000000
210
0.000000
220
0.000000
230
1.000000
  2
SOLID
 70
1
 71
0
 91
1
 92
2
 72
1
 73
1
 93
4
 10
15.075000
 20
11.061000
 42
0.000000
 10
15.525000
 20
11.061000
 42
0.000000
 10
15.525000
 20
9.461000
 42
0.000000
 10
15.075000
 20
9.461000
 42
0.000000
 97
0
 75
0
 76
1
 98
1
 10
0.000000
 20
0.000000
  0
TEXT
  5
877
100
AcDbEntity
  8
PINNUMBERS
100
AcDbText
 10
14.788333
 20
9.531000
 11
15.000000
 21
9.531000
 40
0.635000
 41
0.878740
 50
270.000000
  7
STANDARD
 71
0
 72
2
  1
116
100
AcDbText
 73
0
  0
HATCH
  5
87d
100
AcDbEntity
  8
ETCH
100
AcDbHatch
 10
0.000000
 20
0.000000
 30
0.000000
210
0.000000
220
0.000000
230
1.000000
  2
SOLID
 70
1
 71
0
 91
1
 92
2
 72
1
 73
1
 93
4
 10
14.275000
 20
4.889000
 42
0.000000
 10
14.725000
 20
4.889000
 42
0.000000
 10
14.725000
 20
3.289000
 42
0.000000
 10
14.275000
 20
3.289000
 42
0.000000
 97
0
 75
0
 76
1
 98
1
 10
0.000000
 20
0.000000
  0
TEXT
  5
87e
100
AcDbEntity
  8
PINNUMBERS
100
AcDbText
 10
13.888333
 20
3.359000
 11
14.100000
 21
3.359000
 40
0.635000
 41
0.878740
 50
270.000000
  7
STANDARD
 71
0
 72
2
  1
117
100
AcDbText
 73
0
  0
HATCH
  5
884
100
AcDbEntity
  8
ETCH
100
AcDbHatch
 10
0.000000
 20
0.000000
 30
0.000000
210
0.000000
220
0.000000
230
1.000000
  2
SOLID
 70
1
 71
0
 91
1
 92
2
 72
1
 73
1
 93
4
 10
14.275000
 20
11.061000
 42
0.000000
 10
14.725000
 20
11.061000
 42
0.000000
 10
14.725000
 20
9.461000
 42
0.000000
 10
14.275000
 20
9.461000
 42
0.000000
 97
0
 75
0
 76
1
 98
1
 10
0.000000
 20
0.000000
  0
TEXT
  5
885
100
AcDbEntity
  8
PINNUMBERS
100
AcDbText
 10
13.988333
 20
9.531000
 11
14.200000
 21
9.531000
 40
0.635000
 41
0.878740
 50
270.000000
  7
STANDARD
 71
0
 72
2
  1
118
100
AcDbText
 73
0
  0
HATCH
  5
88b
100
AcDbEntity
  8
ETCH
100
AcDbHatch
 10
0.000000
 20
0.000000
 30
0.000000
210
0.000000
220
0.000000
230
1.000000
  2
SOLID
 70
1
 71
0
 91
1
 92
2
 72
1
 73
1
 93
4
 10
13.475000
 20
4.889000
 42
0.000000
 10
13.925000
 20
4.889000
 42
0.000000
 10
13.925000
 20
3.289000
 42
0.000000
 10
13.475000
 20
3.289000
 42
0.000000
 97
0
 75
0
 76
1
 98
1
 10
0.000000
 20
0.000000
  0
TEXT
  5
88c
100
AcDbEntity
  8
PINNUMBERS
100
AcDbText
 10
13.088333
 20
3.359000
 11
13.300000
 21
3.359000
 40
0.635000
 41
0.878740
 50
270.000000
  7
STANDARD
 71
0
 72
2
  1
119
100
AcDbText
 73
0
  0
HATCH
  5
892
100
AcDbEntity
  8
ETCH
100
AcDbHatch
 10
0.000000
 20
0.000000
 30
0.000000
210
0.000000
220
0.000000
230
1.000000
  2
SOLID
 70
1
 71
0
 91
1
 92
2
 72
1
 73
1
 93
4
 10
13.475000
 20
11.061000
 42
0.000000
 10
13.925000
 20
11.061000
 42
0.000000
 10
13.925000
 20
9.461000
 42
0.000000
 10
13.475000
 20
9.461000
 42
0.000000
 97
0
 75
0
 76
1
 98
1
 10
0.000000
 20
0.000000
  0
TEXT
  5
893
100
AcDbEntity
  8
PINNUMBERS
100
AcDbText
 10
13.188333
 20
9.531000
 11
13.400000
 21
9.531000
 40
0.635000
 41
0.878740
 50
270.000000
  7
STANDARD
 71
0
 72
2
  1
120
100
AcDbText
 73
0
  0
HATCH
  5
899
100
AcDbEntity
  8
ETCH
100
AcDbHatch
 10
0.000000
 20
0.000000
 30
0.000000
210
0.000000
220
0.000000
230
1.000000
  2
SOLID
 70
1
 71
0
 91
1
 92
2
 72
1
 73
1
 93
4
 10
68.475000
 20
7.500000
 42
0.000000
 10
71.015000
 20
7.500000
 42
0.000000
 10
71.015000
 20
6.850000
 42
0.000000
 10
68.475000
 20
6.850000
 42
0.000000
 97
0
 75
0
 76
1
 98
1
 10
0.000000
 20
0.000000
  0
TEXT
  5
89a
100
AcDbEntity
  8
PINNUMBERS
100
AcDbText
 10
70.003333
 20
6.925000
 11
70.215000
 21
6.925000
 40
0.635000
 41
0.878740
 50
0.000000
  7
STANDARD
 71
0
 72
2
  1
G1
100
AcDbText
 73
0
  0
HATCH
  5
8a0
100
AcDbEntity
  8
ETCH
100
AcDbHatch
 10
0.000000
 20
0.000000
 30
0.000000
210
0.000000
220
0.000000
230
1.000000
  2
SOLID
 70
1
 71
0
 91
1
 92
2
 72
1
 73
1
 93
4
 10
51.585000
 20
7.500000
 42
0.000000
 10
54.125000
 20
7.500000
 42
0.000000
 10
54.125000
 20
6.850000
 42
0.000000
 10
51.585000
 20
6.850000
 42
0.000000
 97
0
 75
0
 76
1
 98
1
 10
0.000000
 20
0.000000
  0
TEXT
  5
8a1
100
AcDbEntity
  8
PINNUMBERS
100
AcDbText
 10
53.113333
 20
6.925000
 11
53.325000
 21
6.925000
 40
0.635000
 41
0.878740
 50
0.000000
  7
STANDARD
 71
0
 72
2
  1
G4
100
AcDbText
 73
0
  0
HATCH
  5
8a7
100
AcDbEntity
  8
ETCH
100
AcDbHatch
 10
0.000000
 20
0.000000
 30
0.000000
210
0.000000
220
0.000000
230
1.000000
  2
SOLID
 70
1
 71
0
 91
1
 92
2
 72
1
 73
1
 93
4
 10
48.475000
 20
7.500000
 42
0.000000
 10
51.015000
 20
7.500000
 42
0.000000
 10
51.015000
 20
6.850000
 42
0.000000
 10
48.475000
 20
6.850000
 42
0.000000
 97
0
 75
0
 76
1
 98
1
 10
0.000000
 20
0.000000
  0
TEXT
  5
8a8
100
AcDbEntity
  8
PINNUMBERS
100
AcDbText
 10
50.003333
 20
6.925000
 11
50.215000
 21
6.925000
 40
0.635000
 41
0.878740
 50
0.000000
  7
STANDARD
 71
0
 72
2
  1
G5
100
AcDbText
 73
0
  0
HATCH
  5
8ae
100
AcDbEntity
  8
ETCH
100
AcDbHatch
 10
0.000000
 20
0.000000
 30
0.000000
210
0.000000
220
0.000000
230
1.000000
  2
SOLID
 70
1
 71
0
 91
1
 92
2
 72
1
 73
1
 93
4
 10
31.585000
 20
7.500000
 42
0.000000
 10
34.125000
 20
7.500000
 42
0.000000
 10
34.125000
 20
6.850000
 42
0.000000
 10
31.585000
 20
6.850000
 42
0.000000
 97
0
 75
0
 76
1
 98
1
 10
0.000000
 20
0.000000
  0
TEXT
  5
8af
100
AcDbEntity
  8
PINNUMBERS
100
AcDbText
 10
33.313333
 20
6.925000
 11
33.525000
 21
6.925000
 40
0.635000
 41
0.878740
 50
0.000000
  7
STANDARD
 71
0
 72
2
  1
G8
100
AcDbText
 73
0
  0
HATCH
  5
8b5
100
AcDbEntity
  8
ETCH
100
AcDbHatch
 10
0.000000
 20
0.000000
 30
0.000000
210
0.000000
220
0.000000
230
1.000000
  2
SOLID
 70
1
 71
0
 91
1
 92
2
 72
1
 73
1
 93
4
 10
28.475000
 20
7.500000
 42
0.000000
 10
31.015000
 20
7.500000
 42
0.000000
 10
31.015000
 20
6.850000
 42
0.000000
 10
28.475000
 20
6.850000
 42
0.000000
 97
0
 75
0
 76
1
 98
1
 10
0.000000
 20
0.000000
  0
TEXT
  5
8b6
100
AcDbEntity
  8
PINNUMBERS
100
AcDbText
 10
30.203333
 20
6.925000
 11
30.415000
 21
6.925000
 40
0.635000
 41
0.878740
 50
0.000000
  7
STANDARD
 71
0
 72
2
  1
G9
100
AcDbText
 73
0
  0
HATCH
  5
8bc
100
AcDbEntity
  8
ETCH
100
AcDbHatch
 10
0.000000
 20
0.000000
 30
0.000000
210
0.000000
220
0.000000
230
1.000000
  2
SOLID
 70
1
 71
0
 91
1
 92
2
 72
1
 73
1
 93
4
 10
11.585000
 20
7.500000
 42
0.000000
 10
14.125000
 20
7.500000
 42
0.000000
 10
14.125000
 20
6.850000
 42
0.000000
 10
11.585000
 20
6.850000
 42
0.000000
 97
0
 75
0
 76
1
 98
1
 10
0.000000
 20
0.000000
  0
TEXT
  5
8bd
100
AcDbEntity
  8
PINNUMBERS
100
AcDbText
 10
13.088333
 20
6.900000
 11
13.300000
 21
6.900000
 40
0.635000
 41
0.878740
 50
0.000000
  7
STANDARD
 71
0
 72
2
  1
G12
100
AcDbText
 73
0
  0
HATCH
  5
8c3
100
AcDbEntity
  8
ETCH
100
AcDbHatch
 10
0.000000
 20
0.000000
 30
0.000000
210
0.000000
220
0.000000
230
1.000000
  2
SOLID
 70
1
 71
0
 91
1
 92
2
 72
1
 73
1
 93
4
 10
62.125000
 20
7.500000
 42
0.000000
 10
66.825000
 20
7.500000
 42
0.000000
 10
66.825000
 20
6.850000
 42
0.000000
 10
62.125000
 20
6.850000
 42
0.000000
 97
0
 75
0
 76
1
 98
1
 10
0.000000
 20
0.000000
  0
TEXT
  5
8c4
100
AcDbEntity
  8
PINNUMBERS
100
AcDbText
 10
64.733333
 20
6.925000
 11
64.945000
 21
6.925000
 40
0.635000
 41
0.878740
 50
0.000000
  7
STANDARD
 71
0
 72
2
  1
G2
100
AcDbText
 73
0
  0
HATCH
  5
8ca
100
AcDbEntity
  8
ETCH
100
AcDbHatch
 10
0.000000
 20
0.000000
 30
0.000000
210
0.000000
220
0.000000
230
1.000000
  2
SOLID
 70
1
 71
0
 91
1
 92
2
 72
1
 73
1
 93
4
 10
55.775000
 20
7.500000
 42
0.000000
 10
60.475000
 20
7.500000
 42
0.000000
 10
60.475000
 20
6.850000
 42
0.000000
 10
55.775000
 20
6.850000
 42
0.000000
 97
0
 75
0
 76
1
 98
1
 10
0.000000
 20
0.000000
  0
TEXT
  5
8cb
100
AcDbEntity
  8
PINNUMBERS
100
AcDbText
 10
58.383333
 20
6.925000
 11
58.595000
 21
6.925000
 40
0.635000
 41
0.878740
 50
0.000000
  7
STANDARD
 71
0
 72
2
  1
G3
100
AcDbText
 73
0
  0
HATCH
  5
8d1
100
AcDbEntity
  8
ETCH
100
AcDbHatch
 10
0.000000
 20
0.000000
 30
0.000000
210
0.000000
220
0.000000
230
1.000000
  2
SOLID
 70
1
 71
0
 91
1
 92
2
 72
1
 73
1
 93
4
 10
42.125000
 20
7.500000
 42
0.000000
 10
46.825000
 20
7.500000
 42
0.000000
 10
46.825000
 20
6.850000
 42
0.000000
 10
42.125000
 20
6.850000
 42
0.000000
 97
0
 75
0
 76
1
 98
1
 10
0.000000
 20
0.000000
  0
TEXT
  5
8d2
100
AcDbEntity
  8
PINNUMBERS
100
AcDbText
 10
44.733333
 20
6.925000
 11
44.945000
 21
6.925000
 40
0.635000
 41
0.878740
 50
0.000000
  7
STANDARD
 71
0
 72
2
  1
G6
100
AcDbText
 73
0
  0
HATCH
  5
8d8
100
AcDbEntity
  8
ETCH
100
AcDbHatch
 10
0.000000
 20
0.000000
 30
0.000000
210
0.000000
220
0.000000
230
1.000000
  2
SOLID
 70
1
 71
0
 91
1
 92
2
 72
1
 73
1
 93
4
 10
35.775000
 20
7.500000
 42
0.000000
 10
40.475000
 20
7.500000
 42
0.000000
 10
40.475000
 20
6.850000
 42
0.000000
 10
35.775000
 20
6.850000
 42
0.000000
 97
0
 75
0
 76
1
 98
1
 10
0.000000
 20
0.000000
  0
TEXT
  5
8d9
100
AcDbEntity
  8
PINNUMBERS
100
AcDbText
 10
38.583333
 20
6.925000
 11
38.795000
 21
6.925000
 40
0.635000
 41
0.878740
 50
0.000000
  7
STANDARD
 71
0
 72
2
  1
G7
100
AcDbText
 73
0
  0
HATCH
  5
8df
100
AcDbEntity
  8
ETCH
100
AcDbHatch
 10
0.000000
 20
0.000000
 30
0.000000
210
0.000000
220
0.000000
230
1.000000
  2
SOLID
 70
1
 71
0
 91
1
 92
2
 72
1
 73
1
 93
4
 10
22.125000
 20
7.500000
 42
0.000000
 10
26.825000
 20
7.500000
 42
0.000000
 10
26.825000
 20
6.850000
 42
0.000000
 10
22.125000
 20
6.850000
 42
0.000000
 97
0
 75
0
 76
1
 98
1
 10
0.000000
 20
0.000000
  0
TEXT
  5
8e0
100
AcDbEntity
  8
PINNUMBERS
100
AcDbText
 10
24.933333
 20
6.925000
 11
25.145000
 21
6.925000
 40
0.635000
 41
0.878740
 50
0.000000
  7
STANDARD
 71
0
 72
2
  1
G10
100
AcDbText
 73
0
  0
HATCH
  5
8e6
100
AcDbEntity
  8
ETCH
100
AcDbHatch
 10
0.000000
 20
0.000000
 30
0.000000
210
0.000000
220
0.000000
230
1.000000
  2
SOLID
 70
1
 71
0
 91
1
 92
2
 72
1
 73
1
 93
4
 10
15.775000
 20
7.500000
 42
0.000000
 10
20.475000
 20
7.500000
 42
0.000000
 10
20.475000
 20
6.850000
 42
0.000000
 10
15.775000
 20
6.850000
 42
0.000000
 97
0
 75
0
 76
1
 98
1
 10
0.000000
 20
0.000000
  0
TEXT
  5
8e7
100
AcDbEntity
  8
PINNUMBERS
100
AcDbText
 10
18.583333
 20
6.925000
 11
18.795000
 21
6.925000
 40
0.635000
 41
0.878740
 50
0.000000
  7
STANDARD
 71
0
 72
2
  1
G11
100
AcDbText
 73
0
  0
HATCH
  5
8eb
100
AcDbEntity
  8
ETCH
100
AcDbHatch
 10
0.000000
 20
0.000000
 30
0.000000
210
0.000000
220
0.000000
230
1.000000
  2
SOLID
 70
1
 71
0
 91
1
 92
2
 72
1
 73
1
 93
2
 10
71.290000
 20
5.139000
 42
1.000000
 10
69.790000
 20
5.139000
 42
1.000000
 97
0
 75
0
 76
1
 98
1
 10
0.000000
 20
0.000000
  0
HATCH
  5
8ef
100
AcDbEntity
  8
ETCH
100
AcDbHatch
 10
0.000000
 20
0.000000
 30
0.000000
210
0.000000
220
0.000000
230
1.000000
  2
SOLID
 70
1
 71
0
 91
1
 92
2
 72
1
 73
1
 93
2
 10
12.810000
 20
5.139000
 42
1.000000
 10
11.310000
 20
5.139000
 42
1.000000
 97
0
 75
0
 76
1
 98
1
 10
0.000000
 20
0.000000
  0
POLYLINE
  5
8f0
100
AcDbEntity
  8
ASSEMBLY
100
AcDb2dPolyline
 66
1
 70
1
 40
0.000000
 41
0.000000
 39
0.000000
  0
VERTEX
  5
8f2
100
AcDbEntity
  8
ASSEMBLY
100
AcDbVertex
100
AcDb2dVertex
 10
71.300000
 20
4.175000
 40
0.100000
 41
0.100000
 42
0.000000
  0
VERTEX
  5
8f3
100
AcDbEntity
  8
ASSEMBLY
100
AcDbVertex
100
AcDb2dVertex
 10
11.300000
 20
4.175000
 40
0.100000
 41
0.100000
 42
0.000000
  0
VERTEX
  5
8f4
100
AcDbEntity
  8
ASSEMBLY
100
AcDbVertex
100
AcDb2dVertex
 10
11.300000
 20
8.675000
 40
0.100000
 41
0.100000
 42
0.000000
  0
VERTEX
  5
8f5
100
AcDbEntity
  8
ASSEMBLY
100
AcDbVertex
100
AcDb2dVertex
 10
12.800000
 20
10.175000
 40
0.100000
 41
0.100000
 42
0.000000
  0
VERTEX
  5
8f6
100
AcDbEntity
  8
ASSEMBLY
100
AcDbVertex
100
AcDb2dVertex
 10
69.800000
 20
10.175000
 40
0.100000
 41
0.100000
 42
0.000000
  0
VERTEX
  5
8f7
100
AcDbEntity
  8
ASSEMBLY
100
AcDbVertex
100
AcDb2dVertex
 10
71.300000
 20
8.675000
 40
0.100000
 41
0.100000
 42
0.000000
  0
SEQEND
  5
8f1
100
AcDbEntity
  0
POLYLINE
  5
8f8
100
AcDbEntity
  8
ASSEMBLY
100
AcDb2dPolyline
 66
1
 70
1
 40
0.000000
 41
0.000000
 39
0.000000
  0
VERTEX
  5
8fa
100
AcDbEntity
  8
ASSEMBLY
100
AcDbVertex
100
AcDb2dVertex
 10
70.300000
 20
5.175000
 40
0.100000
 41
0.100000
 42
0.000000
  0
VERTEX
  5
8fb
100
AcDbEntity
  8
ASSEMBLY
100
AcDbVertex
100
AcDb2dVertex
 10
12.300000
 20
5.175000
 40
0.100000
 41
0.100000
 42
0.000000
  0
VERTEX
  5
8fc
100
AcDbEntity
  8
ASSEMBLY
100
AcDbVertex
100
AcDb2dVertex
 10
12.300000
 20
8.175000
 40
0.100000
 41
0.100000
 42
0.000000
  0
VERTEX
  5
8fd
100
AcDbEntity
  8
ASSEMBLY
100
AcDbVertex
100
AcDb2dVertex
 10
13.300000
 20
9.175000
 40
0.100000
 41
0.100000
 42
0.000000
  0
VERTEX
  5
8fe
100
AcDbEntity
  8
ASSEMBLY
100
AcDbVertex
100
AcDb2dVertex
 10
69.300000
 20
9.175000
 40
0.100000
 41
0.100000
 42
0.000000
  0
VERTEX
  5
8ff
100
AcDbEntity
  8
ASSEMBLY
100
AcDbVertex
100
AcDb2dVertex
 10
70.300000
 20
8.175000
 40
0.100000
 41
0.100000
 42
0.000000
  0
SEQEND
  5
8f9
100
AcDbEntity
  0
HATCH
  5
903
100
AcDbEntity
  8
ASSEMBLY
100
AcDbHatch
 10
0.000000
 20
0.000000
 30
0.000000
210
0.000000
220
0.000000
230
1.000000
  2
SOLID
 70
1
 71
0
 91
1
 92
2
 72
1
 73
1
 93
2
 10
70.300000
 20
3.175000
 42
1.000000
 10
69.700000
 20
3.175000
 42
1.000000
 97
0
 75
0
 76
1
 98
1
 10
0.000000
 20
0.000000
  0
TEXT
  5
904
100
AcDbEntity
  8
ASSEMBLY
100
AcDbText
 10
8.100000
 20
4.400000
 11
0.000000
 21
0.000000
 40
1.905000
 41
1.000000
 50
0.000000
  7
STANDARD
 71
0
 72
0
  1
J1
100
AcDbText
 73
0
  0
HATCH
  5
90a
100
AcDbEntity
  8
ETCH
100
AcDbHatch
 10
0.000000
 20
0.000000
 30
0.000000
210
0.000000
220
0.000000
230
1.000000
  2
SOLID
 70
1
 71
0
 91
1
 92
2
 72
1
 73
1
 93
4
 10
76.800000
 20
45.800000
 42
0.000000
 10
80.800000
 20
45.800000
 42
0.000000
 10
80.800000
 20
41.800000
 42
0.000000
 10
76.800000
 20
41.800000
 42
0.000000
 97
0
 75
0
 76
1
 98
1
 10
0.000000
 20
0.000000
  0
TEXT
  5
90b
100
AcDbEntity
  8
ASSEMBLY
100
AcDbText
 10
73.100000
 20
43.300000
 11
0.000000
 21
0.000000
 40
1.270000
 41
1.019685
 50
0.000000
  7
STANDARD
 71
0
 72
0
  1
MH5
100
AcDbText
 73
0
  0
HATCH
  5
911
100
AcDbEntity
  8
ETCH
100
AcDbHatch
 10
0.000000
 20
0.000000
 30
0.000000
210
0.000000
220
0.000000
230
1.000000
  2
SOLID
 70
1
 71
0
 91
1
 92
2
 72
1
 73
1
 93
4
 10
1.800000
 20
5.800000
 42
0.000000
 10
5.800000
 20
5.800000
 42
0.000000
 10
5.800000
 20
1.800000
 42
0.000000
 10
1.800000
 20
1.800000
 42
0.000000
 97
0
 75
0
 76
1
 98
1
 10
0.000000
 20
0.000000
  0
TEXT
  5
912
100
AcDbEntity
  8
ASSEMBLY
100
AcDbText
 10
5.940000
 20
1.900000
 11
0.000000
 21
0.000000
 40
1.270000
 41
1.019685
 50
0.000000
  7
STANDARD
 71
0
 72
0
  1
MH4
100
AcDbText
 73
0
  0
HATCH
  5
918
100
AcDbEntity
  8
ETCH
100
AcDbHatch
 10
0.000000
 20
0.000000
 30
0.000000
210
0.000000
220
0.000000
230
1.000000
  2
SOLID
 70
1
 71
0
 91
1
 92
2
 72
1
 73
1
 93
4
 10
76.800000
 20
50.800000
 42
0.000000
 10
80.800000
 20
50.800000
 42
0.000000
 10
80.800000
 20
46.800000
 42
0.000000
 10
76.800000
 20
46.800000
 42
0.000000
 97
0
 75
0
 76
1
 98
1
 10
0.000000
 20
0.000000
  0
TEXT
  5
919
100
AcDbEntity
  8
ASSEMBLY
100
AcDbText
 10
73.140000
 20
48.200000
 11
0.000000
 21
0.000000
 40
1.270000
 41
1.019685
 50
0.000000
  7
STANDARD
 71
0
 72
0
  1
MH2
100
AcDbText
 73
0
  0
HATCH
  5
91f
100
AcDbEntity
  8
ETCH
100
AcDbHatch
 10
0.000000
 20
0.000000
 30
0.000000
210
0.000000
220
0.000000
230
1.000000
  2
SOLID
 70
1
 71
0
 91
1
 92
2
 72
1
 73
1
 93
4
 10
76.800000
 20
5.800000
 42
0.000000
 10
80.800000
 20
5.800000
 42
0.000000
 10
80.800000
 20
1.800000
 42
0.000000
 10
76.800000
 20
1.800000
 42
0.000000
 97
0
 75
0
 76
1
 98
1
 10
0.000000
 20
0.000000
  0
TEXT
  5
920
100
AcDbEntity
  8
ASSEMBLY
100
AcDbText
 10
73.140000
 20
2.000000
 11
0.000000
 21
0.000000
 40
1.270000
 41
1.019685
 50
0.000000
  7
STANDARD
 71
0
 72
0
  1
MH3
100
AcDbText
 73
0
  0
HATCH
  5
926
100
AcDbEntity
  8
ETCH
100
AcDbHatch
 10
0.000000
 20
0.000000
 30
0.000000
210
0.000000
220
0.000000
230
1.000000
  2
SOLID
 70
1
 71
0
 91
1
 92
2
 72
1
 73
1
 93
4
 10
1.800000
 20
50.800000
 42
0.000000
 10
5.800000
 20
50.800000
 42
0.000000
 10
5.800000
 20
46.800000
 42
0.000000
 10
1.800000
 20
46.800000
 42
0.000000
 97
0
 75
0
 76
1
 98
1
 10
0.000000
 20
0.000000
  0
TEXT
  5
927
100
AcDbEntity
  8
ASSEMBLY
100
AcDbText
 10
5.940000
 20
48.100000
 11
0.000000
 21
0.000000
 40
1.270000
 41
1.019685
 50
0.000000
  7
STANDARD
 71
0
 72
0
  1
MH1
100
AcDbText
 73
0
  0
POLYLINE
  5
928
100
AcDbEntity
  8
ASSEMBLY
100
AcDb2dPolyline
 66
1
 70
1
 40
0.000000
 41
0.000000
 39
0.000000
  0
VERTEX
  5
92a
100
AcDbEntity
  8
ASSEMBLY
100
AcDbVertex
100
AcDb2dVertex
 10
79.900000
 20
48.800000
 40
0.100000
 41
0.100000
 42
1.000000
  0
VERTEX
  5
92b
100
AcDbEntity
  8
ASSEMBLY
100
AcDbVertex
100
AcDb2dVertex
 10
77.700000
 20
48.800000
 40
0.100000
 41
0.100000
 42
1.000000
  0
SEQEND
  5
929
100
AcDbEntity
  0
POLYLINE
  5
92c
100
AcDbEntity
  8
ASSEMBLY
100
AcDb2dPolyline
 66
1
 70
1
 40
0.000000
 41
0.000000
 39
0.000000
  0
VERTEX
  5
92e
100
AcDbEntity
  8
ASSEMBLY
100
AcDbVertex
100
AcDb2dVertex
 10
79.900000
 20
3.800000
 40
0.100000
 41
0.100000
 42
1.000000
  0
VERTEX
  5
92f
100
AcDbEntity
  8
ASSEMBLY
100
AcDbVertex
100
AcDb2dVertex
 10
77.700000
 20
3.800000
 40
0.100000
 41
0.100000
 42
1.000000
  0
SEQEND
  5
92d
100
AcDbEntity
  0
POLYLINE
  5
930
100
AcDbEntity
  8
ASSEMBLY
100
AcDb2dPolyline
 66
1
 70
1
 40
0.000000
 41
0.000000
 39
0.000000
  0
VERTEX
  5
932
100
AcDbEntity
  8
ASSEMBLY
100
AcDbVertex
100
AcDb2dVertex
 10
79.900000
 20
43.800000
 40
0.100000
 41
0.100000
 42
1.000000
  0
VERTEX
  5
933
100
AcDbEntity
  8
ASSEMBLY
100
AcDbVertex
100
AcDb2dVertex
 10
77.700000
 20
43.800000
 40
0.100000
 41
0.100000
 42
1.000000
  0
SEQEND
  5
931
100
AcDbEntity
  0
POLYLINE
  5
934
100
AcDbEntity
  8
ASSEMBLY
100
AcDb2dPolyline
 66
1
 70
1
 40
0.000000
 41
0.000000
 39
0.000000
  0
VERTEX
  5
936
100
AcDbEntity
  8
ASSEMBLY
100
AcDbVertex
100
AcDb2dVertex
 10
4.900000
 20
48.800000
 40
0.100000
 41
0.100000
 42
1.000000
  0
VERTEX
  5
937
100
AcDbEntity
  8
ASSEMBLY
100
AcDbVertex
100
AcDb2dVertex
 10
2.700000
 20
48.800000
 40
0.100000
 41
0.100000
 42
1.000000
  0
SEQEND
  5
935
100
AcDbEntity
  0
POLYLINE
  5
938
100
AcDbEntity
  8
ASSEMBLY
100
AcDb2dPolyline
 66
1
 70
1
 40
0.000000
 41
0.000000
 39
0.000000
  0
VERTEX
  5
93a
100
AcDbEntity
  8
ASSEMBLY
100
AcDbVertex
100
AcDb2dVertex
 10
3.800000
 20
4.900000
 40
0.100000
 41
0.100000
 42
1.000000
  0
VERTEX
  5
93b
100
AcDbEntity
  8
ASSEMBLY
100
AcDbVertex
100
AcDb2dVertex
 10
3.800000
 20
2.700000
 40
0.100000
 41
0.100000
 42
1.000000
  0
SEQEND
  5
939
100
AcDbEntity
  0
POLYLINE
  5
93c
100
AcDbEntity
  8
DIMENSION
100
AcDb2dPolyline
 66
1
 70
0
 40
0.000000
 41
0.000000
 39
0.000000
  0
VERTEX
  5
93e
100
AcDbEntity
  8
DIMENSION
100
AcDbVertex
100
AcDb2dVertex
 10
41.300000
 20
45.925000
 40
0.100000
 41
0.100000
 42
0.000000
  0
VERTEX
  5
93f
100
AcDbEntity
  8
DIMENSION
100
AcDbVertex
100
AcDb2dVertex
 10
41.300000
 20
44.925000
 40
0.100000
 41
0.100000
 42
0.000000
  0
SEQEND
  5
93d
100
AcDbEntity
  0
POLYLINE
  5
940
100
AcDbEntity
  8
DIMENSION
100
AcDb2dPolyline
 66
1
 70
0
 40
0.000000
 41
0.000000
 39
0.000000
  0
VERTEX
  5
942
100
AcDbEntity
  8
DIMENSION
100
AcDbVertex
100
AcDb2dVertex
 10
40.800000
 20
45.425000
 40
0.100000
 41
0.100000
 42
0.000000
  0
VERTEX
  5
943
100
AcDbEntity
  8
DIMENSION
100
AcDbVertex
100
AcDb2dVertex
 10
41.800000
 20
45.425000
 40
0.100000
 41
0.100000
 42
0.000000
  0
SEQEND
  5
941
100
AcDbEntity
  0
POLYLINE
  5
944
100
AcDbEntity
  8
DIMENSION
100
AcDb2dPolyline
 66
1
 70
0
 40
0.000000
 41
0.000000
 39
0.000000
  0
VERTEX
  5
946
100
AcDbEntity
  8
DIMENSION
100
AcDbVertex
100
AcDb2dVertex
 10
40.800000
 20
7.175000
 40
0.100000
 41
0.100000
 42
0.000000
  0
VERTEX
  5
947
100
AcDbEntity
  8
DIMENSION
100
AcDbVertex
100
AcDb2dVertex
 10
41.800000
 20
7.175000
 40
0.100000
 41
0.100000
 42
0.000000
  0
SEQEND
  5
945
100
AcDbEntity
  0
POLYLINE
  5
948
100
AcDbEntity
  8
DIMENSION
100
AcDb2dPolyline
 66
1
 70
0
 40
0.000000
 41
0.000000
 39
0.000000
  0
VERTEX
  5
94a
100
AcDbEntity
  8
DIMENSION
100
AcDbVertex
100
AcDb2dVertex
 10
41.300000
 20
7.675000
 40
0.100000
 41
0.100000
 42
0.000000
  0
VERTEX
  5
94b
100
AcDbEntity
  8
DIMENSION
100
AcDbVertex
100
AcDb2dVertex
 10
41.300000
 20
6.675000
 40
0.100000
 41
0.100000
 42
0.000000
  0
SEQEND
  5
949
100
AcDbEntity
  0
LWPOLYLINE
  5
94c
100
AcDbEntity
  8
OUTLINE
100
AcDbPolyline
 90
4
 70
1
 39
0.000000
 10
0.000000
 20
0.000000
 40
0.000000
 41
0.000000
 42
0.000000
 10
82.600000
 20
0.000000
 40
0.000000
 41
0.000000
 42
0.000000
 10
82.600000
 20
52.600000
 40
0.000000
 41
0.000000
 42
0.000000
 10
0.000000
 20
52.600000
 40
0.000000
 41
0.000000
 42
0.000000
  0
TEXT
  5
951
100
AcDbEntity
  8
DIMENSION
100
AcDbText
 10
-13.069000
 20
52.940000
 11
0.000000
 21
0.000000
 40
1.905000
 41
1.000000
 50
0.000000
  7
STANDARD
 71
0
 72
0
  1
[mm]
100
AcDbText
 73
0
  0
TEXT
  5
952
100
AcDbEntity
  8
DIMENSION
100
AcDbText
 10
57.037000
 20
54.590000
 11
0.000000
 21
0.000000
 40
1.905000
 41
1.000000
 50
0.000000
  7
STANDARD
 71
0
 72
0
  1
5x
100
AcDbText
 73
0
  0
ENDSEC
  0
SECTION
  2
OBJECTS
  0
DICTIONARY
  5
17
100
AcDbDictionary
  3
ACAD_GROUP
350
18
  3
ACAD_MLINESTYLE
350
19
  0
DICTIONARY
  5
18
100
AcDbDictionary
  0
DICTIONARY
  5
19
100
AcDbDictionary
  0
ENDSEC
  0
EOF
